Hectic Electric

(/) Slide Up  (\) Slide Down  (h) Hammer On  (p) Pull Off  (b) Bend (r) Release (v) Vibrato

E|-------------------------
B|-------------------------
G|-------------------------
D|----------14-------------
A|--14--15------15--14-----
E|-------------------------



E|--------------------------
B|--------------------------
G|--------------------------
D|----------14----------16--
A|--14--15------15--14------
E|--------------------------



E|--------------------------
B|--------------------------
G|--------------------------
D|----------14----------17--
A|--14--15------15--14------
E|--------------------------



E|--------------------------
B|--------------------------
G|----------------------16--
D|----------14--------------
A|--14--15------15--14------
E|--------------------------
http://www.guitartabcreator.com
Guitar Tab Creator is intended to store guitar tab created through the tool. It currently does not support in-line text editing. Any text you place in here will be lost. If you need to comment on your tab, please use the "Tab Notes" section located below.