What I Am

(/) Slide Up  (\) Slide Down  (h) Hammer On  (p) Pull Off  (b) Bend (r) Release (v) Vibrato

Verse 1:
D|------------------------------------------------
A|------------------------------------------------
F|------------------------------------------------
C|------------------------------------------------
G|------------------------------------------------
D|--0--3--5--0--6--5--0--3--5--0--6--5--3--0--0--0
Verse 2:
D|----------------------------------------------------------------
A|----------------------------------------------------------------
F|----------------------------------------------------------------
C|----------------------------------------------------------------
G|----------------------------------------------------------------
D|0----0--0----0--1----1--1----1--3----3--3----3--1----1--1----1--
Chorus 1:
D|-----------------------
A|-----------------------
F|-----------------------
C|-----------------------
G|5----------------------
D|-----5--3--0--3--5--7--
Chorus 2:
D|------------------------------------------------
A|------------------------------------------------
F|------------------------------------------------
C|------------------------------------------------
G|------------------------------------------------
D|0--0--3--5--0--0--7--6--0--0--3--5--0--0--5--3--
Guitar Tab Creator is intended to store guitar tab created through the tool. It currently does not support in-line text editing. Any text you place in here will be lost. If you need to comment on your tab, please use the "Tab Notes" section located below.