Untitled Raiden Project (Written by Scott Smith, Sam Cabeke, and Patrick Berry)

(/) Slide Up  (\) Slide Down  (h) Hammer On  (p) Pull Off  (b) Bend (r) Release (v) Vibrato

Drum Intro HUAH!
D#|-----------------------------
A#|-----------------------------
F#|-----------------------------
C#|-----------------------------
G#|--------------------------12\
D#|--------------------------12\

D#|----------------------------------------------------------
A#|----------------------------------------------------------
F#|----------------------------------------------------------
C#|----------------------------------------------------------
G#|--7--------------7--5----------5--------------7--5--7--8--
D#|--5--0-0-0-0-0-0-5--3--0-0-0-0-3--0-0-0-0-0-0-5--3--5--6--
Guitar Tab Creator is intended to store guitar tab created through the tool. It currently does not support in-line text editing. Any text you place in here will be lost. If you need to comment on your tab, please use the "Tab Notes" section located below.