Untitled 1

(/) Slide Up  (\) Slide Down  (h) Hammer On  (p) Pull Off  (b) Bend (r) Release (v) Vibrato


D#|--------------------------------------------------------
A#|--------------------------------------------------------
F#|--------------------------------------------------------
C#|--------------------------------------------------------
G#|----------------3--5--3--5------------------3--5--3--5--
D#|0-0-0-0-0-0-0-0-3--5--3--5--0-0-0-0-0-0-0-0-3--5--3--5--

D#|--------------------------------------------------------
A#|--------------------------------------------------------
F#|--------------------------------------------------------
C#|--------------------------------------------------------
G#|----------------------3--5------------------------3--5--
D#|0-0-0-0-0-0-0-0-3--5--------0-0-0-0-0-0-0-0-3--5--------

D#|--------------------------------------------------------
A#|--------------------------------------------------------
F#|--------------------------------------------------------
C#|--------------------------------------------------------
G#|----------------5--3------------------------5--3--------
D#|0-0-0-0-0-0-0-0-------5--3--0-0-0-0-0-0-0-0-------5--3--
http://www.guitartabcreator.com
Guitar Tab Creator is intended to store guitar tab created through the tool. It currently does not support in-line text editing. Any text you place in here will be lost. If you need to comment on your tab, please use the "Tab Notes" section located below.