Twisted Metal

(/) Slide Up  (\) Slide Down  (h) Hammer On  (p) Pull Off  (b) Bend (r) Release (v) Vibrato


Intro:
E|-------------------------------------------------------------------
B|-------------------------------------------------------------------
G|-------------------------------------------------------------------
D|-------------------------------------------------------------------
A|--5-----2-----4-----2-----4---3p2---5-----2-----4-----------2-5-4-2
D|----4-4---4-4---4-4---4-4---4----4----4-4---4-4---4-4-4-2-4--------
Verse:
E|------------------------------------------------------------------
B|------------------------------------------------------------------
G|------------------------------------------------------------------
D|------------------------------------------------------------------
A|--------------------------------------------------7---5-----------
D|--0-0-0---0-0-0---0-0-0---0-0-0---0-0-0---0-0-0---5---3---0---0---
Chorus:
E|------------------------------------------------------------------
B|------------------------------------------------------------------
G|------------------------------------------------------------------
D|------------------------------------------------------------------
A|------------------------------------------------------------------
D|--2-0-0-2-0-0-2-0-0-2-0-0-2-0-5-0-2-0-0-2-0-0-2-0-0-2-0-0-7-6-3-0-
Bridge 1:
E|-------------------------------------------------------------------------------------------------
B|-------------------------------------------------------------------------------------------------
G|-------------------------------------------------------------------------------------------------
D|-------------------------------------------------------------------------------------------------
A|-------------------------------------------------------------------------------------------------
D|--0-0-0-0-0-0-0-0-0-0-0-0-0-0-0-0-0-0-1-3-5-8-5-3-1-0-0-0-0-0-0-0-0-0-0-0-0-0-8-8-5-10-10-5-3----
Breakdown:
E|-----------------------------------------------------
B|-----------------------------------------------------
G|-----------------------------------------------------
D|-----------------------------------------------------
A|-----------------------------------------------------
D|--6-----5-----6-----5-----10-8-7-3-6-----5-----5-----
Bridge 2:
E|------------------------------------------------------------------
B|------------------------------------------------------------------
G|------------------------------------------------------------------
D|------------------------------------------------------------------
A|------------------------------------------------------------------
D|--6-0-0-0-0-0-0-0-6-0-0-7-0-0-2-3-5-7-0-0-0-0-0-0-0-0-3-2-4-5-6-7-
Guitar Tab Creator is intended to store guitar tab created through the tool. It currently does not support in-line text editing. Any text you place in here will be lost. If you need to comment on your tab, please use the "Tab Notes" section located below.