Sons of Slayer

(/) Slide Up  (\) Slide Down  (h) Hammer On  (p) Pull Off  (b) Bend (r) Release (v) Vibrato

Verse:
D#|--------------------------------------------------------------
A#|--------------------------------------------------------------
F#|--------------------------------------------------------------
C#|--------------------------------------------------------------
G#|--------4----------------5----------------4----------------4/5
D#|0-0-0-0-2--------0-0-0-0-3--------0-0-0-0-2--------0-0-0-0-2/3
Verse (continued):
D#|--------------------------------------------------------------
A#|--------------------------------------------------------------
F#|--------------------------------------------------------------
C#|--------------------------------------------------------------
G#|--------4----------------5----------------4----------------5/4
D#|0-0-0-0-2--------0-0-0-0-3--------0-0-0-0-2--------0-0-0-0-3/2
Chorus:
D#|----------------------------------------------------------------
A#|----------------------------------------------------------------
F#|----------------------------------------------------------------
C#|----------------------------------------------------------------
G#|----------------------------------------------------------------
D#|3-3-0-0-1-1-0-0-3-3-0-0-1-1-0-0-3-3-0-0-1-1-0-0-3-3-0-0-0-0-0-0-
Guitar Tab Creator is intended to store guitar tab created through the tool. It currently does not support in-line text editing. Any text you place in here will be lost. If you need to comment on your tab, please use the "Tab Notes" section located below.