Revolution Inc.

(/) Slide Up  (\) Slide Down  (h) Hammer On  (p) Pull Off  (b) Bend (r) Release (v) Vibrato

Verse 1:
D|--------------------------------------------------------------------------------------------------
A|--------------------------------------------------------------------------------------------------
F|--------------------------------------------------------------------------------------------------
C|--------------------------------------------------------------------------------------------------
G|--------------------------------------------------------------------------------------------------
D|--0-0-0-0-0-0-0-0-0-0-0-0-3-3-3-0-----5-5-5-0-----0-0-0-0-0-0-0-0-0-0-0-0-2-2-2-2-2-2-1-1-1-1-1-1-
Verse 2:
D|--------------------------------------------------------------------------------------------------
A|--------------------------------------------------------------------------------------------------
F|--------------------------------------------------------------------------------------------------
C|--------------------------------------------------------------------------------------------------
G|--------------------------------------------------------------------------------------------------
D|--0-0-0-0-0-0-0-0-0-0-0-0-3-3-3-3-3-3-3-3-3-3-3-3-0-0-0-0-0-0-0-0-0-0-0-0-5-5-5-5-5-5-5-5-5-5-5-5-
Chorus:
D|--------------------------------------------------------------------------------------------------
A|--------------------------------------------------------------------------------------------------
F|--------------------------------------------------------------------------------------------------
C|--------------------------------------------------------------------------------------------------
G|--------------------------------------------------------------------------0h2h3-0h2h3-------------
D|--0h2h3-0h2h3-0h2h3-0h2h3-1h3h4-1h3h4-1h3h4-1h3h4-3h5h6-3h5h6-3h5h6-3h5h6-------------3h5h6-1h3h4-
Pre Bridge:
D|----------------------
A|----------------------
F|----------------------
C|----------------------
G|--2----2----2----2----
D|--0----0----0----0----
Bridge 1 (sped up):
D|----------------------------------------------------------------------------
A|----------------------------------------------------------------------------
F|----------------------------------------------------------------------------
C|----------------------------------------------------------------------------
G|----------3-----------3-----------3-------3-------3-------5\4------7\6------
D|--0-0-0-0-1---0-0-0-0-1---0-0-0-0-1---0-0-1---0-0-1---0-0-3\2------5\4------
Bridge 2 (sped up):
D|-------------------------------------------------------------------------------
A|-------------------------------------------------------------------------------
F|-------------------------------------------------------------------------------
C|-------------------------------------------------------------------------------
G|----------------------------------3-----------3-----------3-----------3/5------
D|--0-0-0-0-0-0-0-0-0-0-0-0-0-0-0-0-1---0-0-0-0-1---0-0-0-0-1---0-0-0-0-1/3------
Guitar Tab Creator is intended to store guitar tab created through the tool. It currently does not support in-line text editing. Any text you place in here will be lost. If you need to comment on your tab, please use the "Tab Notes" section located below.