Retribution

(/) Slide Up  (\) Slide Down  (h) Hammer On  (p) Pull Off  (b) Bend (r) Release (v) Vibrato

Verse:
D#|------------------------------------------------------
A#|------------------------------------------------------
F#|------------------------------------------------------
C#|------------------------------------------------------
G#|--2------------------------------3--------5--------3--
D#|--0---0-0-0-0-0-0-0-0-0-0-0-0-0--1--0--0--3--0--0--1--
Pre-Chorus:
D#|----------------------------------------------------------------
A#|----------------------------------------------------------------
F#|----------------------------------------------------------------
C#|----------------------------------------------------------------
G#|----------------------------------------------------------------
D#|1-1-1-1-1-1-1-1-4-4-4-4-4-4-4-4-3-3-3-3-0-0-0-0-0-0-0-0-0-0-0-0-
Chorus:
D#|------------------------------
A#|------------------------------
F#|------------------------------
C#|------------------------------
G#|--------2--------------2------
D#|0-0-0-0-0------0-0-0-0-0------
Bridge (slowed down):
D#|------------------------------------------------
A#|------------------------------------------------
F#|------------------------------------------------
C#|------------------------------------------------
G#|------------------------------------------------
D#|7--5--0--0--3--2--0--0--1--0--1--0--1--0--1--0--

Chart:

Verse x 4 (mostly guitars)
Verse x 4
Pre Chorus x 4
Chorus x 4
Verse x 4 (mostly guitars)
Verse x 4 (no vocals)
Verse x 4
Pre Chorus x 4
Chorus x 4
Bridge x 4 (no vocals)
Bridge x 4
Solo (verse rhythm guitars) x 4
Pre Chorus x 4
Chorus x 2
Verse x 4 (mostly guitars)
Guitar Tab Creator is intended to store guitar tab created through the tool. It currently does not support in-line text editing. Any text you place in here will be lost. If you need to comment on your tab, please use the "Tab Notes" section located below.