Megadeth

(/) Slide Up  (\) Slide Down  (h) Hammer On  (p) Pull Off  (b) Bend (r) Release (v) Vibrato

Intro:
E|----------------------
B|----------------------
G|----------------------
D|--10---9----7----9----
A|--8----7----5----7----
E|----------------------
Verse:
E|----------------------------------------------------------------
B|----------------------------------------------------------------
G|----------------------------------------------------------------
D|----5-----7---------5-----7---------5-----5---5-7---7---7-9-----
A|----3-----5---------3-----5---------3-----3---3/5---5---5/7-----
E|0-0---0-0---0-0-0-0---0-0---0-0-0-0---0-0---0-----0---0-----0-0-
Guitar Tab Creator is intended to store guitar tab created through the tool. It currently does not support in-line text editing. Any text you place in here will be lost. If you need to comment on your tab, please use the "Tab Notes" section located below.