Hellrider

(/) Slide Up  (\) Slide Down  (h) Hammer On  (p) Pull Off  (b) Bend (r) Release (v) Vibrato
Verse:
D|-----------------------------------------------------
A|-----------------------------------------------------
F|-----------------------------------------------------
C|-----------------------------------------------------
G|--3-------3-------3-------3/4---------4/6---------6\3
D|--1-0-0-0-1-0-0-0-1-0-0-0-1/2-0-0-0-0-2/4-0-0-0-0-4\1
Chorus:
D|-------------------------------------------------------------
A|-------------------------------------------------------------
F|-------------------------------------------------------------
C|-------------------------------------------------------------
G|--3----------------------------------------------------------
D|--1-0-0-0-0-0-0-0-0-0-0-0-0-0-0-0-1-0-0-0-0-3-0-0-0-0-1-2-3-5
Bridge:
D|--------------------------------------------------
A|--------------------------------------------------
F|--------------------------------------------------
C|--------------------------------------------------
G|--------------------------------------------------
D|--1--1--0--0--3--3--0--0--2--2--0--0--5--5--0--0--
Breakdown:
D|----------------------------------
A|----------------------------------
F|----------------------------------
C|----------------------------------
G|----------------------------------
D|--0-0---0---0-0---0-0-0---0-0-0---
Guitar Tab Creator is intended to store guitar tab created through the tool. It currently does not support in-line text editing. Any text you place in here will be lost. If you need to comment on your tab, please use the "Tab Notes" section located below.