The Final Fight

(/) Slide Up  (\) Slide Down  (h) Hammer On  (p) Pull Off  (b) Bend (r) Release (v) Vibrato

Intro:
D#|----------------------------------------------------------------------------
A#|----------------------------------------------------------------------------
F#|----------------------------------------------------------------------------
C#|----------14---------13---------------------14-----------13-----------------
G#|--9h11---------------------9--11--9--9h11----------------------9--11--9--6--
D#|----------------------------------------------------------------------------
Verse:
D#|---------------------------------------------------
A#|---------------------------------------------------
F#|---------------------------------------------------
C#|---------------------------------------------------
G#|--------6-----6\5---------------6-----6\5\3--------
D#|--0--6h8---0-----6--2--3--0--6h8---0---------3--2--
Chorus:
D#|--------------------------------------------------------
A#|--------------------------------------------------------
F#|--------------------------------------------------------
C#|--5--------5--5----3----------3--3--2--5----------------
G#|--5--------5--5----3----------3--3--2--5----------------
D#|--3--------3--3----1----------1--1--0--3----------------
Guitar Tab Creator is intended to store guitar tab created through the tool. It currently does not support in-line text editing. Any text you place in here will be lost. If you need to comment on your tab, please use the "Tab Notes" section located below.