Feasting of the Apocalypse Walking Bass Solo

(/) Slide Up  (\) Slide Down  (h) Hammer On  (p) Pull Off  (b) Bend (r) Release (v) Vibrato

BPM:

F#|----------5p3-----5p3---------3h5-----7p5-8p7-11p10-8p7---------5h7-----------------
C#|--------------5p3-----5p3-3h5-----5h7-------------------7h9-5h7-----------------3p0-
G#|--------3-----------------------------------------------------------------2h3h5-----
D#|--0h3h5-------------------------------------------------------------0h2h3-----------

F#|------------------------------0h1-------------5h7-
C#|--3p0-0h3h5---------------0h2-------------3h5-----
G#|------------2h3h5-----0h3-------------0h3---------
D#|------------------0h2-------------0h2-------------
Guitar Tab Creator is intended to store guitar tab created through the tool. It currently does not support in-line text editing. Any text you place in here will be lost. If you need to comment on your tab, please use the "Tab Notes" section located below.