The Fear (prototype name)

(/) Slide Up  (\) Slide Down  (h) Hammer On  (p) Pull Off  (b) Bend (r) Release (v) Vibrato

(q) quarter note (s) sixteenth note (H) half note

205 bpm

Drum intro:
D|-----
A|-----
F|-----
C|-----
G|-----
D|--12\

Pattern 1 (alternate version has all open notes played as sixteenth notes):

D|---------------------------------------------------------------
A|---------------------------------------------------------------
F|---------------------------------------------------------------
C|---------------------------------------------------------------
G|--7---------------7---5-----------5---------------7---5---7---8
D|--5---0-0-0-0-0-0-5---3---0-0-0-0-3---0-0-0-0-0-0-5---3---5---6
H q q q q q q H H q q q q H q q q q q q H H H H

Pattern 2:

D|--
A|--
F|--
C|--
G|--
D|--

Pattern 3 (guitar one):

D|----------------------------------
A|----------------------------------
F|----------------------------------
C|----------------------------------
G|------------5---------------------
D|--0-0-0-5-7---8---0-0-0-0-5-3-5---
q q q q q q H q q q q q q H

Pattern 3 (guitar two):

D|----------------------------------
A|----------------------------------
F|----------------------------------
C|------------5---------------------
G|--------5-7---8-----------5-3-5---
D|--0-0-0-----------0-0-0-0---------
q q q q q q H q q q q q q H
Guitar Tab Creator is intended to store guitar tab created through the tool. It currently does not support in-line text editing. Any text you place in here will be lost. If you need to comment on your tab, please use the "Tab Notes" section located below.