Dragon

(/) Slide Up  (\) Slide Down  (h) Hammer On  (p) Pull Off  (b) Bend (r) Release (v) Vibrato

Riff A:
D#|------------
A#|------------
F#|------------
C#|-------0h3h5
G#|--0h3h5-----
D#|------------
Riff B:
D#|----------------------------
A#|----------------------------
F#|----------------------------
C#|--4---3---------------------
G#|--2---1---------------------
D#|----------1-0-0-1-0-0-1-0-0-
Riff C:
D#|------------
A#|------------
F#|------------
C#|--0----0h3h5
G#|---h3h5-----
D#|------------

Chart:

Riff A x 8
Riff B x 4
Riff A x 8
Riff B x 4
Riff C x 8
Riff A x 4
Guitar Tab Creator is intended to store guitar tab created through the tool. It currently does not support in-line text editing. Any text you place in here will be lost. If you need to comment on your tab, please use the "Tab Notes" section located below.