Countdown to Self-Destruction (Suicidal Impulses) Guitar

(/) Slide Up  (\) Slide Down  (h) Hammer On  (p) Pull Off  (b) Bend (r) Release (v) Vibrato

Intro (Guitar Harmony Part 1[right side]):
D#|-------------------------------------------------------------------
A#|-------------------------------------------------------------------
F#|-------------------------------------------------------------------
C#|------13--14--13--------9--11--------8--9--------9--8--------8--6--
G#|--12--------------7--7---------6--6--------7--7--------6--6--------
D#|-------------------------------------------------------------------

Intro (Guitar Harmony Part 2 [left side]):
D#|-----------------------------------------------------------------
A#|-----------------------------------------------------------------
F#|-----------------------------------------------------------------
C#|-----------------------------------------------------------------
G#|-----11--12--11--------7--9--------6--7--------7--6--------6--4--
D#|--9--------------5--5--------4--4--------5--5--------4--4--------

Intro (Guitar Harmony Part 2 Alternative):
D#|--------------------------------------------------------------
A#|--------------------------------------------------------------
F#|--------------------------------------------------------------
C#|-----6--7--6--------------------------------------------------
G#|--4-----------------7--9--------6--7--------7--6--------6--4--
D#|--------------5--5--------4--4--------5--5--------4--4--------

Intro Bridge (Guitar Harmony 1 [right side]):
D#|--------------------------------------------------
A#|--------------------------------------------------
F#|--------------------------------------------------
C#|--------7--9--------6--7--------7--6--------6--4--
G#|--5--5--------4--4--------5--5--------4--4--------
D#|--------------------------------------------------

Intro Bridge (Guitar Harmony 2 [left side]):
D#|--------------------------------------------------
A#|--------------------------------------------------
F#|--------------------------------------------------
C#|--------------------------------------------------
G#|--------5--7--------4--5--------5--4--------4--2--
D#|--3--3--------2--2--------3--3--------2--2--------

Verse Part 1 (both guitars):
D#|---------------------------------------------------
A#|---------------------------------------------------
F#|---------------------------------------------------
C#|---------------------------------------------------
G#|--9-----9-----9--10--7-----9-----9-----9--9--7-----
D#|-----7-----7------------7-----7-----7-----------9--

Chorus Part 1 (both guitars):
D#|------------------------------------------------------------------------------------------------
A#|------------------------------------------------------------------------------------------------
F#|------------------------------------------------------------------------------------------------
C#|------------------------------------------------------------------------------------------------
G#|--5----5--2--7----7--5--9----9--7--10----10--9--12----11----12----14----16----15----13----11----
D#|--3----3--0--5----5--3--7----7--5--8-----8---7--10----9-----10----12----14----13----11----9-----

Chorus Part 2 (distorted guitar [right side]):
D#|------------------------------------------------------------------------------------------------
A#|------------------------------------------------------------------------------------------------
F#|------------------------------------------------------------------------------------------------
C#|--5----5--2--7----7--5--9----9--7--10----10--9--12----11----12----14----16----15----13----11----
G#|--3----3--0--5----5--3--7----7--5--8-----8---7--10----9-----10----12----14----13----11----9-----
D#|------------------------------------------------------------------------------------------------

Guitar Tab Creator is intended to store guitar tab created through the tool. It currently does not support in-line text editing. Any text you place in here will be lost. If you need to comment on your tab, please use the "Tab Notes" section located below.