Countdown to Self Destruction Guitar Solos

(/) Slide Up  (\) Slide Down  (h) Hammer On  (p) Pull Off  (b) Bend (r) Release (v) Vibrato

"Jazzy" Solo (Right):
D#|------------------------------------------------|------------------------------------------
A#|------------------------------------------------|------------------------------------------
F#|------------------------------------------------|------------------------------------------
C#|------------------------------------------------|------------------------------------------
G#|18-------18-19-------19-18-------18-16-------16-|------18--16----18--------18--16--18------
D#|---16-19-------16-19-------14-19-------14-19----|19------------------19--------------------

D#|--------------------------------------------------------------|--------------
A#|--------------------------------------------------------------|19--19--17----
F#|--------------------------------------------------------------|------------18
C#|16------16------16--17--14------16------16------16--16--14----|--------------
G#|----14------14--------------14------14------14--------------16|--------------
D#|--------------------------------------------------------------|--------------


Heavy Solo 1 (Left):
D#|--19-18-16---19-18-16---19-18-16---19-18-16---20-19-17---20-19-17---20-19-17---20-19-17---
A#|------------------------------------------------------------------------------------------
F#|------------------------------------------------------------------------------------------
C#|------------------------------------------------------------------------------------------
G#|------------------------------------------------------------------------------------------
D#|------------------------------------------------------------------------------------------

D#|------------------------------------------------------------------------------------------
A#|--22-21-19---22-21-19---22-21-19---22-21-19---23-22-20---23-22-20---23-22-20---23v--------
F#|------------------------------------------------------------------------------------------
C#|------------------------------------------------------------------------------------------
G#|------------------------------------------------------------------------------------------
D#|------------------------------------------------------------------------------------------

D#|------------------------------------------17--18-------------------------------------------------
A#|------------------------------------------15--16--16h18p16----16h18p16----16h18p16----16-17-19-20
F#|23--22--20--22--20--18--20--18--17--18--17-----------------17----------17----------17------------
C#|21--20--18--20--18--16--18--16--15--16--15-------------------------------------------------------
G#|-------------------------------------------------------------------------------------------------
D#|-------------------------------------------------------------------------------------------------

Heavy Solo 2 (Right):
D#|------21---14-14-14-14-19-19-19-19-21-21-21-21-22-22-22-22-21-21-21-21-19-19-19-19-17-17-17-17-19
A#|--20---------------------------------------------------------------------------------------------
F#|-------------------------------------------------------------------------------------------------
C#|-------------------------------------------------------------------------------------------------
G#|-------------------------------------------------------------------------------------------------
D#|-------------------------------------------------------------------------------------------------

D#|--------------------------------------------
A#|--------------------------------------------
F#|--------------------------------------------
C#|--------------------------------------------
G#|------------16--17--18------18--19--20------
D#|--15-16-18--------------17------------------

D#|--12-12-12-12-17-17-17-17-19-19-19-19-20-20-20-20-19-19-19-19-17-17-17-17-15-15-15-15-17--------
A#|------------------------------------------------------------------------------------------------
F#|------------------------------------------------------------------------------------------------
C#|------------------------------------------------------------------------------------------------
G#|------------------------------------------------------------------------------------------------
D#|------------------------------------------------------------------------------------------------

Heavy Solo 3 (Left):

D#|--
A#|--
F#|--
C#|--
G#|--
D#|--

Heavy Solo 4 (Right):

D#|------------------------------------------------------------------------------------------
A#|------------------------------------------------------------------------------------------
F#|----------------------------------5-------------------------------------------------------
C#|---------------5----------5-5-3-5---------------------------------------------------------
G#|--5----5-5-3-5---5-3-5--------------5-3-5----11-10-8----11-10-8----11-10-11-10-8----11-10-
D#|-----------------------------------------------------10---------10---------------10-------

D#|--------------------------------------------------
A#|--------------------------------------------------
F#|--------------------------------------------------
C#|--------12-12-14-14-15-15-14-14-12-12-10-10-12----
G#|--12-12-------------------------------------------
D#|--------------------------------------------------
Guitar Tab Creator is intended to store guitar tab created through the tool. It currently does not support in-line text editing. Any text you place in here will be lost. If you need to comment on your tab, please use the "Tab Notes" section located below.