guitar tab #4

(/) Slide Up  (\) Slide Down  (h) Hammer On  (p) Pull Off  (b) Bend (r) Release (v) Vibrato
E|-0-0-0-0-0-0-0-0-0-3-3-3-3-3-3-3-3-3-4-4-4-4-4-4-4-4-4-5-5-5-5-5-5-5-5-5-4-4-4-4-4-4-4-4-4-|-
B|-1-1-1-1-1-1-1-1-1-3-3-3-3-3-3-3-3-3-------------------------------------------------------|-
G|-2-2-2-2-2-2-2-2-2-3-3-3-3-3-3-3-3-3-------------------------------------------------------|-
D|-3-3-3-3-3-3-3-3-3-------------------------------------------------------------------------|-
A|-------------------------------------------------------------------------------------------|-
E|-------------------------------------------------------------------------------------------|-



E|-------------------------------------------------------------|-
B|-5-5-5-4-5-5-5-4-6-5-5-5-4-5-5-5-4-6-5-5-5-4-5-5-5-4-6-5-5-5-|-
G|-------------------------------------------------------------|-
D|-------------------------------------------------------------|-
A|-------------------------------------------------------------|-
E|-------------------------------------------------------------|-



E|---------------6-6-6-----------------------------------------------2-2-|-
B|-------------8-------4---------------------------------------------1-1-|-
G|-5-5-5-7-6-7-----------4-4-4-4-4-4-4-4-4-4-4-4-4-4-4-4-4-4-4-4-4-4-0-0-|-
D|-------------------------------------------------------------------0-0-|-
A|-------------------------------------------------------------------0-0-|-
E|-------------------------------------------------------------------2-2-|-



E|----------------------------------------------|--
B|----------------------------------------------|--
G|--------------------------------------------5b|--
D|--5h6h7--5h6h7--5h6h7--5h6h7--5h6h7--5h6h7----|--
A|----------------------------------------------|--
E|----------------------------------------------|--
http://www.guitartabcreator.com
Guitar Tab Creator is intended to store guitar tab created through the tool. It currently does not support in-line text editing. Any text you place in here will be lost. If you need to comment on your tab, please use the "Tab Notes" section located below.