guitar tab #2

(/) Slide Up  (\) Slide Down  (h) Hammer On  (p) Pull Off  (b) Bend (r) Release (v) Vibrato

E|-0-1-0-2-0-1-0-2-0-1-0-2-0-1-0-2-0-1-0-2-3-3-3-3-3-3-3-3-3-3-3-3-3-2-2-2-2-2-2-1/6-|-
B|-----------------------------------------------------------------------------------|-
G|-----------------------------------------------------------------------------------|-
D|-----------------------------------------------------------------------------------|-
A|-----------------------------------------------------------------------------------|-
E|-----------------------------------------------------------------------------------|-



E|-10-10-10-10-10-10-10-10---------------------------------------------------------------|-
B|-------------------------9-9-9-9-9-9-9-------------------------------------------------|-
G|---------------------------------------8-8-8-8-8-8-8-----------------------------------|-
D|-----------------------------------------------------7-7-7-7-7-------------6-6-6-6-6-6-|-
A|---------------------------------------------------------------6-6-6-6-6-6-------------|-
E|---------------------------------------------------------------------------------------|-



E|-------------------------------------------------------------------------
B|-------------------------------------------------------------------------
G|-------------------------------------------------------------------------
D|---------------------------------------------------------------------6b--
A|-------------------------------------------------------------------------
E|-0-1-2-1-4-4-4-4-4-0-1-2-1-0/7-7-7-7-7-7-0-0-1-2-1-4-4-4-4-4-3-4-3-4-----



E|--1--------------------------------
B|-----3--2--2--2--2-----------------
G|--------------------7--6--8--------
D|--------------------7--6--8--------
A|-----------------------------------
E|-----------------------------------
http://www.guitartabcreator.com
Guitar Tab Creator is intended to store guitar tab created through the tool. It currently does not support in-line text editing. Any text you place in here will be lost. If you need to comment on your tab, please use the "Tab Notes" section located below.