guitar tab #1

(/) Slide Up  (\) Slide Down  (h) Hammer On  (p) Pull Off  (b) Bend (r) Release (v) Vibrato


E|---------------------------------------------------------------------------------------|---
B|---------------------------------------------------------------------------------------|---
G|-4---------------5---------------6-6-6-6-6-6-6-6-6-------------------------------------|---
D|---5-----6---------7-6-7-5-6-7-5-----------------------------------7-7-7-7-7-7-7-7-8-8-|---
A|-----4-6---7-7-5-----------------------------------6-6-6-6-6-6-6-6---------------------|---
E|---------------------------------------------------------------------------------------|---



E|-6-7-6-7-6-7-6-7-5-5-5-5-5-5-5-5-5-5-5-5-5-5-7-6-7-6-7-6-7-6-7-6-7-6-7-5-5-5-5-5-5-5-|---
B|-------------------------------------------------------------------------------------|---
G|-------------------------------------------------------------------------------------|---
D|-------------------------------------------------------------------------------------|---
A|-------------------------------------------------------------------------------------|---
E|-------------------------------------------------------------------------------------|---



E|------------------------------------------------------------------------------------|---
B|------------------------------------------------------------------------------------|---
G|----------------------------4-4-4-4-4-4-4-4-----------------------------------------|---
D|------------------------6-4-----------------4-6-------------------------------------|---
A|----------------------5-------------------------5-----------------------------------|---
E|-8-9-9-8-9-9-12\3-5-6-----------------------------5-6-6-6-6/15-16-17-17-16-17-17-16-|---



E|----------------------------------------------------------
B|----------------------------------------------------------
G|-----3-------------------------------------------------7--
D|--2--------3--3--3--3--3--3--3--3--3--3/12\5--3--1--0--8--
A|--------4----------------------------------------------9--
E|----------------------------------------------------------
http://www.guitartabcreator.com
Guitar Tab Creator is intended to store guitar tab created through the tool. It currently does not support in-line text editing. Any text you place in here will be lost. If you need to comment on your tab, please use the "Tab Notes" section located below.