"destruction like a dalamatian" (Chaos)

(/) Slide Up  (\) Slide Down  (h) Hammer On  (p) Pull Off  (b) Bend (r) Release (v) Vibrato

E|--------------------------------------------------------------------------------|-----
B|--------------------------------------------------------------------------------|-----
G|--------------------------------1--0--1--0--3--3--3--4--2--4--2--6--6--6--------|-----
D|--6--6--6--6--6--6--6--6--6--6--------------------------------------------------|-----
A|--5--5--5--5--5--5--5--5--5--5--------------------------------------------------|-----
E|--6--6--6--6--6--6--6--6--6--6--------------------------------------------------|-----



E|-0-0-0-1-1-1-0-0-0-------0-0-0-1-1-1-0-0-0-------0-0-0-1-1-1-0-0-0-------0-0-0-3-3-3-------|-
B|-------------------2-2-2-------------------2-2-2-------------------5-5-5-------------2-2-2-|-
G|-------------------------------------------------------------------------------------------|-
D|-------------------------------------------------------------------------------------------|-
A|-------------------------------------------------------------------------------------------|-
E|-------------------------------------------------------------------------------------------|-



E|----------------------------------------------------------------------------------------------------------------
B|----------------------------------------------------------------------------------------------------------------
G|----------------------------------------------------------------------------------------------------------------
D|----------------------------------------------------------------------------------------------------------------
A|--0--0h2-------------5--5--5--5--5--5--5--5--5--5-----9--9--9--9--9--7--7--7--4/8\6--4/8\6--0--0--0--0--0--0--5b
E|----------4--4--3h6--------------------------------7--9--9--9--9--9---------------------------------------------
http://www.guitartabcreator.com
Guitar Tab Creator is intended to store guitar tab created through the tool. It currently does not support in-line text editing. Any text you place in here will be lost. If you need to comment on your tab, please use the "Tab Notes" section located below.