austin's theme

(/) Slide Up  (\) Slide Down  (h) Hammer On  (p) Pull Off  (b) Bend (r) Release (v) Vibrato
E|---------------------------------------------------------------------------------------|---
B|---------------------------------------------------------------------------------------|---
G|-4-6-----5-5-----------------------------------------------7-7-7-7-7-7-7-7-7-----------|---
D|-5-6---4---4-8-8-8-8-8-8-8-8-8-8-8-8-8-7-7-7-7-7-7-7-7-7-7-------------------7-7-7-7-7-|---
A|-4-6-5-----5---------------------------------------------------------------------------|---
E|---------------------------------------------------------------------------------------|---



E|--------------------------------------------------------------------------------
B|--5--5--------------------------------6--6--3--3--5--5--------------7--8--8--8--
G|--------4--4--------3--3--6--6--5--5-----------------------------7-----8--8--8--
D|--------------5--5--------------------------------------3--3--7-----------------
A|--------------------------------------------------------------------------------
E|--------------------------------------------------------------------------------
http://www.guitartabcreator.com
Guitar Tab Creator is intended to store guitar tab created through the tool. It currently does not support in-line text editing. Any text you place in here will be lost. If you need to comment on your tab, please use the "Tab Notes" section located below.