Leave it all behind

(/) Slide Up  (\) Slide Down  (h) Hammer On  (p) Pull Off  (b) Bend (r) Release (v) Vibrato


E|----------------------------------------------------------------
B|----------------------------------------------------------------
G|--7----------------9--------------5--------------7--------------
D|----------------------------------------------------------------
A|--5----------------7--------------3--------------5--------------
E|----------------------------------------------------------------



E|--------------------------------------------------------------------------
B|--------------------------------------------------------------------------
G|--------------------------------------------------------------------------
D|--5-----------------7-----------------3--------------5--------------------
A|--5-----------------7-----------------3--------------5--------------------
E|--5--5--5--5--5--5--7--7--7--7--7--7--3--3--3--3--3--5--5--5--5--5--5--5--



E|--10--10--10--10--10--12--12--12--12--12--12--8--8--8--8--10--10--10--10--10--10--10--
B|--------------------------------------------------------------------------------------
G|--------------------------------------------------------------------------------------
D|--------------------------------------------------------------------------------------
A|--------------------------------------------------------------------------------------
E|--------------------------------------------------------------------------------------



E|-----------
B|-----------
G|-----------
D|--------0--
A|-----0-----
E|--0--------



E|----------------------------------
B|----------------------------------
G|----------------------------------
D|--5----------8--------0--------0--
A|--5----------8--------0--------0--
E|--5----------8--------0--------0--



E|----------------
B|----------------
G|----------------
D|--0--0----0--0--
A|--0--0----0--0--
E|--0--0----0--0--



E|--------------------------------------
B|--------------------------------------
G|--------------------------------------
D|--8--8--8--8----------14--14--14--14--
A|--7--7--7--7----------13--13--13--13--
E|--------------------------------------



E|-------------------------------------------
B|-------------------------------------------
G|-------------------------------------------
D|--0--------5--------0--------3----5--------
A|--0--------5--------0--------3----3--------
E|--0--------5--------0--------3----2--------



E|------------------------------------
B|------------------------------------
G|------------------------------------
D|--0--------5--------0--------8--10--
A|--0--------5--------0--------8--10--
E|--0--------5--------0--------8--10--



E|--------------------------------------------
B|--------------------------------------------
G|--------------------------------------------
D|--0--0--0--0--3--3--3--3--0--0--0--0--0--0--
A|--------------------------------------0--0--
E|--------------------------------------0--0--



E|-----
B|-----
G|-----
D|--0--
A|--0--
E|--0--
http://www.guitartabcreator.com
Guitar Tab Creator is intended to store guitar tab created through the tool. It currently does not support in-line text editing. Any text you place in here will be lost. If you need to comment on your tab, please use the "Tab Notes" section located below.