U2 Still Haven't Found Bass

(/) Slide Up  (\) Slide Down  (h) Hammer On  (p) Pull Off  (b) Bend (r) Release (v) Vibrato
E|--------------------------------------------------------------------------
B|--------------------------------------------------------------------------
G|--------------------------------------------------------------------------
D|--------------------------------------------------------------------------
A|-----------5--5--5-----------5--5--5-----------5--5--5-----------5--5--5--
E|--2--3--4-----------2--3--4-----------2--3--4-----------2--3--4-----------



E|--------------------------------------------------------------------------
B|--------------------------------------------------------------------------
G|--------------------------------------------------------------------------
D|--------------------------------------------------------------------------
A|-----------------------------------------------5--5--5-----------5--5--5--
E|--2--3--4--3--3--3--0--0--2--3--3--3--2--3--4-----------2--3--4-----------



E|--------------------------------------------------------------------------
B|--------------------------------------------------------------------------
G|--------------------------------------------------------------------------
D|--------------------------------------------------------------------------
A|-----------5--5--5-----------5--5--5-----------5--5--5-----------5--5--5--
E|--2--3--4-----------2--3--4-----------2--3--4-----------2--3--4-----------



E|--------------------------------------------------------------------------
B|--------------------------------------------------------------------------
G|--------------------------------------------------------------------------
D|--------------------------------------------------------------------------
A|-----------------------------------------------5--5--5-----------5--5--5--
E|--2--3--4--3--3--3--0--0--2--3--3--3--2--3--4-----------2--3--4-----------



E|--------------------------------------------------------------------------
B|--------------------------------------------------------------------------
G|--------------------------------------------------------------------------
D|--------------------------------------------------------------------------
A|-----------------------------------------------5--5--5-----------5--5--5--
E|--2--3--4--5--5--5--5--5--4--3--3--3--3--3--2-----------2--3--4-----------



E|--------------------------------------------------------------------------
B|--------------------------------------------------------------------------
G|--------------------------------------------------------------------------
D|--------------------------------------------------------------------------
A|-----------------------------------------------5--5--5-----------5--5--5--
E|--2--3--4--5--5--5--5--5--4--3--3--3--3--3--2-----------2--3--4-----------
http://www.guitartabcreator.com
Guitar Tab Creator is intended to store guitar tab created through the tool. It currently does not support in-line text editing. Any text you place in here will be lost. If you need to comment on your tab, please use the "Tab Notes" section located below.