U2 Bass Solo

(/) Slide Up  (\) Slide Down  (h) Hammer On  (p) Pull Off  (b) Bend (r) Release (v) Vibrato

E|----------------------------------------------------------------------------------------------
B|----------------------------------------------------------------------------------------------
G|----------------------------------------------------------------------------------------------
D|----------------------------------------------------------------------------------------------
A|----------------------------------10--11--12--------------------------------------10--11--12--
E|--10--10--13--10----10--13--10--------------------10--10--13--10----10--13--10----------------



E|------------------------------------------------------------------
B|------------------------------------------------------------------
G|----------------------------------13--12--10--------------10------
D|--10h12--10h12----10h12--10h12----------------12--10--12------12--
A|------------------------------------------------------------------
E|------------------------------------------------------------------
http://www.guitartabcreator.com
Guitar Tab Creator is intended to store guitar tab created through the tool. It currently does not support in-line text editing. Any text you place in here will be lost. If you need to comment on your tab, please use the "Tab Notes" section located below.