The Gardener

(/) Slide Up  (\) Slide Down  (h) Hammer On  (p) Pull Off  (b) Bend (r) Release (v) Vibrato
E|--0--0--0--0--0--0--0--0--
B|--0--0--0--0--0--0--0--0--
G|--0--3--0--3--0--3--5--3--
D|--0--0--0--0--0--0--0--0--
A|--2--0--0--0--0--2--4--2--
E|--0--0--0--0--0--0--0--0--



E|--0--0--0--0--0--
B|--0--0--0--0--3--
G|--2--0--2--5--2--
D|--4--2--0--4--0--
A|--0--4--2-----0--
E|--0--0--0--5--0--



E|--0--0--0--0--0--
B|--0--0--0--0--0--
G|--0--3--2--5--3--
D|--0--2--0--0--2--
A|--2--0--0--0--0--
E|--5--0--0--5--0--



E|--0--0--0--0--0--0--0-----
B|--0--0--0--0--0--0--0-----
G|--1--0--1--0--0--0--0-----
D|--4--1--4--1--0--0--0-----
A|--0--0--0--0--0--2--2-----
E|--0--0--0--0--0--0--5-----



E|-----0--
B|-----0--
G|-----5--
D|-----4--
A|--5--5--
E|-----0--
http://www.guitartabcreator.com
Guitar Tab Creator is intended to store guitar tab created through the tool. It currently does not support in-line text editing. Any text you place in here will be lost. If you need to comment on your tab, please use the "Tab Notes" section located below.