Speak Shit Too Bass tab

(/) Slide Up  (\) Slide Down  (h) Hammer On  (p) Pull Off  (b) Bend (r) Release (v) Vibrato
E|--------------------------------------------------
B|--------------------------------------------------
G|-----------------------------------------6--------
D|--4-----6--7--4-----6--4--4-----6--7--4-----6--4--
A|-----7-----------7-----------7--------------------
E|--------------------------------------------------



E|--------------------------------------------------------
B|--------------------------------------------------------
G|--------------------------------2-----------------------
D|--0--2--2--4--2--2--0--2--2--4-----2--2--0--2--4--2--0--
A|--------------------------------------------------------
E|--------------------------------------------------------



E|-------------------------------------------------------
B|-------------------------------------------------------
G|-------------------------------------------------------
D|-----------7--6--------7-----------7--9--7--6----------
A|--9--7--9--------7--9-----9--7--9--------------7--7h9--
E|-------------------------------------------------------



E|-----------------------------------------------------------------------------------------------------
B|-----------------------------------------------------------------------------------------------------
G|-----------------------------------------------------------------------------------------------------
D|-----------7--6--------7-----------7--9--7--6----------------7--6--------7-----------7--9--11--9--7--
A|--9--7--9--------7--9-----9--7--9--------------7--7h9--7--9--------7--9-----9--7--9------------------
E|-----------------------------------------------------------------------------------------------------



E|--------------------------
B|--------------------------
G|-----------------6--------
D|-----7-----6--4-----6--4--
A|--5-----7-----------------
E|--------------------------



E|--------------------------------------------
B|--------------------------------------------
G|--------------------------------------------
D|---------------------11---------------------
A|------12--11--12--9------12--11--9----------
E|--10--------------------------------12--10--



E|----------------------
B|----------------------
G|----------------------
D|----------------------
A|----------------------
E|--10/12/14\12\10\7\2--
http://www.guitartabcreator.com
Guitar Tab Creator is intended to store guitar tab created through the tool. It currently does not support in-line text editing. Any text you place in here will be lost. If you need to comment on your tab, please use the "Tab Notes" section located below.