Jezebel Bass tab

(/) Slide Up  (\) Slide Down  (h) Hammer On  (p) Pull Off  (b) Bend (r) Release (v) Vibrato

E|-------------------------------------------------------------------------
B|-------------------------------------------------------------------------
G|-------------------------------------------------------------------------
D|-------------------------------------------------------------------------
A|-----------------------7--8--10--8--7--------------------7--8--10--8--7--
E|--0--0--0--0--0--0--0------------------0--0--0--0--0--0------------------



E|------------------------------------------------------------------------------------
B|------------------------------------------------------------------------------------
G|------------------------------------------------------------------------------------
D|------------------------------------------------------------------------------------
A|--7--8--10--8--7--------7--8--10--8--7--------7--8--10--8--7--------7--8--10--8--7--
E|------------------0--0------------------0--0------------------0--0------------------



E|-----------------------------------------------------------------------
B|-----------------------------------------------------------------------
G|-----------------------------------------------------------------------
D|-----5-----------------------5-----------------------------------------
A|--7-----------9--7--5--7--7--------------9--7--5-----7-----5--5--7-----
E|--------7--7--------------------7--7--7-----------5-----3-----------0--



E|--------------------------------------------------------------------------------------------------------------------------------
B|--------------------------------------------------------------------------------------------------------------------------------
G|--------------------------------------------------------------------------------------------------------------------------------
D|-----------------------------------------------------------------------------------------------------------------------------5--
A|-----7--8--10--8--7-----7--8--10--8--7--7--8--10--8--7--7--8--10--8--7--------7--8--10--8--7--------7--8--10--8-----5--7--5-----
E|--0------------------0--------------------------------------------------0--0------------------0--0---------------7--------------



E|--------------------------------------------------------------------
B|--------------------------------------------------------------------
G|--------------------------------------------------------------------
D|-----5-----------------------5--------------------------------------
A|--7-----------9--7--5--7--7--------------9--7--5-----7-----5--5--7--
E|--------7--7--------------------7--7--7-----------5-----3-----------



E|-----------------------------------------------------------------------
B|-----------------------------------------------------------------------
G|--------------------------------------4--------------------------------
D|-----------5--5--4--------------5--4-----------------------------------
A|--------------------7--5--7--------------9--7--5-----5--7-----5--7-----
E|--0--0--0--------------------0--------------------5--------3--------0--



E|--------------------------------------------------------------------------
B|--------------------------------------------------------------------------
G|--------------------------------------------------------------------------
D|--------------5-----------------------5-----------------------------------
A|-----------------------9--7--5--------------9--7--5-----5--7-----5--7-----
E|--0--3--5--0-----7--7-----------0--0-----7-----------5--------3--------0--



E|--------------------------------------------------------------
B|--------------------------------------------------------------
G|--------------------------------------------------------------
D|-----------------------------------------------------7-----5--
A|--7--8--10--8-----7--8--10--8--7--7--8--10--8--7--5-----3-----
E|---------------0----------------------------------------------



E|-------------------------------------------------------------
B|-------------------------------------------------------------
G|-------------------------------------------------------------
D|----------------------------------------------------7--------
A|--7--8--10--8--7-----------7--8--10--8--7-----7--------------
E|------------------0--5--3------------------0-----5-----3-----
http://www.guitartabcreator.com
Guitar Tab Creator is intended to store guitar tab created through the tool. It currently does not support in-line text editing. Any text you place in here will be lost. If you need to comment on your tab, please use the "Tab Notes" section located below.