Hawk Boy Bass tab

(/) Slide Up  (\) Slide Down  (h) Hammer On  (p) Pull Off  (b) Bend (r) Release (v) Vibrato

E|----------------------------------------------------------------
B|----------------------------------------------------------------
G|----------------------------------------------------------------
D|--------------6h8-----------------------------------------------
A|----------------------------------------------------------------
E|--6--6--6--6-------6--6--6--6--6--4--4--4--4--4--3--3--9--9--9--



E|-----------------------------------------------------------------------------
B|-----------------------------------------------------------------------------
G|-----------------------------------------------------------------------------
D|--------------------------------------------------5--3-----------------------
A|-----------------------3--3--3--5--6--5--3--------------3--5--3-----3--------
E|--3--3--3--3--1--1--1-----------------------6--3-----------------6-----6--8--



E|------------------------------------
B|------------------------------------
G|------------------------------------
D|--------6--8--------6--8------------
A|-----8--------6--8------------------
E|--6-----------------------4/6--4/6--



E|-----------------------------------------------------------------
B|-----------------------------------------------------------------
G|-----------------------------------------------------------------
D|--------------6--8-----------------------------------------------
A|-----------------------------------------------------------------
E|--6--6--6--6--------6--6--6--6--6--4--4--4--4--4--3--3--9--9--9--



E|-----------------------------------------------------------------------
B|-----------------------------------------------------------------------
G|-----------------------------------------------------------------------
D|-----------------------------------------------5--3--------------------
A|--------------------------3--5--6--5--3--------------3--5--3-----3-----
E|--3--3--3--3--1--1--1--1-----------------6--3-----------------6-----8--



E|-----------------------------------------------------------------------------------
B|-----------------------------------------------------------------------------------
G|-----------------------------------------------------------------------------------
D|-----------5-----3-----------5--------------------------5--3-----------------------
A|--------------------3-----3-----3--5--6--5--3--------5--------3--5--3--------------
E|--3--3--3-----1--------1-----------------------6--3--------------------6--3--6--8--



E|----------------------------------------------------------------------------------
B|----------------------------------------------------------------------------------
G|----------------------------------------------------------------------------------
D|----------------------------------------------------------------------------------
A|--------------------------3--3--3--1--10--10--10--10--8--8--8--8-----------8--10--
E|--3--3--3--3--1--1--1--1------------------------------------------8--8--8---------



E|----------------------------------------------------------------------------
B|----------------------------------------------------------------------------
G|----------------------------------------------------------------------------
D|--------8--------8--------8--------8--------8-------------------------------
A|--8h10-----8h10-----8h10-----8h10-----8h10-----8--------------8--10--10--8--
E|--------------------------------------------------8--8--8--8----------------
http://www.guitartabcreator.com
Guitar Tab Creator is intended to store guitar tab created through the tool. It currently does not support in-line text editing. Any text you place in here will be lost. If you need to comment on your tab, please use the "Tab Notes" section located below.