Drop D Corsetta

(/) Slide Up  (\) Slide Down  (h) Hammer On  (p) Pull Off  (b) Bend (r) Release (v) Vibrato

E|------------------------------------------------------------------------------------------
B|------------------------------------------------------------------------------------------
G|----------------------------------------------------4--2--------------4--2----------------
D|--------2--4--------2--4--------2--4--------2--4b5--------4--2--------------4--2----------
A|-----0-----------0-----------0-----------0----------------------2--0--------------2--5----
E|--0-----------0-----------0-----------0---------------------------------------------------



E|--------------------------------------------
B|--------------------------------------------
G|--4--2--------------4--2--------------------
D|--------4--2--------------4--2--------------
A|--------------2--0--------------2--5--5--0--
E|--------------------------------------5--0--
http://www.guitartabcreator.com
Guitar Tab Creator is intended to store guitar tab created through the tool. It currently does not support in-line text editing. Any text you place in here will be lost. If you need to comment on your tab, please use the "Tab Notes" section located below.