hcts v3

(/) Slide Up  (\) Slide Down  (h) Hammer On  (p) Pull Off  (b) Bend (r) Release (v) Vibrato

Stave 1:

E|--2-----0--2--------------|--2--0--------------|-----------0--------------|--
B|--3--3-----------3--------|--3--------3-----0--|-----3-----0-----3-----0--|--
G|--2-----------------------|--2--------------0--|-----0-----------0-----0--|--
D|--0-----------0-----0--0--|--0-----0-----0-----|--------------------------|--
A|--------------------------|--------------------|--2-----2-----2-----2-----|--
E|--------------------------|--------------------|--3-----3-----3-----3-----|--

Stave 2:

E|-----------------0-----|--
B|--2--0--2--3-----------|--
G|--0-----0--------------|--
D|--2-----2--------------|--
A|--0-----0-----0-----0--|--
E|-----------------------|--

Stave 3:

E|--2-----0--2--------------|--2--0--------------|-----2--0-----------------|--
B|--3--3-----------3--------|--3--------3-----0--|-----0--------3-----0--2--|--
G|--2-----------------------|--2--------------0--|-----0--------0-----0--0--|--
D|--0-----------0-----0--0--|--0-----0-----0-----|-----0-----------------2--|--
A|--------------------------|--------------------|--2--------2-----2-----0--|--
E|--------------------------|--------------------|--3--------3-----3--------|--

Stave 4:

E|--2--0-----2--0-----------|--2-----0--2--------|-----2--0-----2--------|--
B|--3--------------3--------|--3--3-----------0--|-----0--------0-----0--|--
G|--2--------------2--------|--2--------------0--|-----0--------------0--|--
D|--0-----0-----------0--0--|--0-----------0-----|-----0-----------------|--
A|--------------------------|--------------------|--2--------2-----2-----|--
E|--------------------------|--------------------|--3--------3-----3-----|--

Stave 5:

E|--------------------------|-----2--0-------------0--|--------0--------0--|-----
B|--------------------------|-----------3-------3-----|-----3--------3-----|-----
G|--1--1--1--1--1--1--1--1--|--------------2/4--------|--2--------0--------|-----
D|--2--2--2--2--2--2--2--2--|--0----------------------|--------------------|-----
A|--2--2--2--2--2--2--2--2--|-------------------------|--------------------|-----
E|--0--0--0--0--0--0--0--0--|-------------------------|--------------------|-----

Stave 6:

E|--------0------------|--2-----0--2--------------|-----------------0-----|--
B|-----3-----3p2-------|--3--3-----------3--------|--2--0--2--3-----------|--
G|--2-------------4\2--|--2-----------------------|--0-----0--------------|--
D|---------------------|--0-----------0-----0--0--|--2-----2--------------|--
A|---------------------|--------------------------|--0-----0-----0-----0--|--
E|---------------------|--------------------------|-----------------------|--

Stave 7:

E|--2----2----2--2--2--2--|--------------------------------------------------|--
B|--3----3----3--3--3--3--|--2--2--2--2-----------------1--------------------|--
G|--2----2----2--2--2--2--|--0--0--0--0--------------2-----------0--------0--|--
D|--0----0----0--0--0--0--|--2--2--2--2--------2--3-----------2--------0-----|--
A|------------------------|--0--0--0--0--0--4--------------3--------2--------|--
E|------------------------|--------------------------------------------------|--

Stave 8:

E|--------
B|--------
G|--------
D|--------
A|-----2--
E|--3-----

Stave 9:

E|-----------------------------------0--------------0--|--5--------
B|--2--2--2--0--2--3--------3--0--3--------------3-----|--2--------
G|--0--0--0-----0-----0--0--0-----------0--0--0--0-----|--2--------
D|--2--2--2-----2-----2--2--2-----------2--2--2--2-----|--2--------
A|--0--0--0-----0-----0--0--0-----------0--0--0--0-----|-----------
E|-----------------------------------------------------|-----------

Stave 10:

E|--------------------------------------------|--2--
B|-----------------1--------------------------|--3--
G|--------------2-----------0--------0--------|--2--
D|--------2--3-----------2--------0-----------|--0--
A|--0--4--------------3--------2-----------2--|-----
E|--------------------------------------3-----|-----

Stave 11:

E|--2--0-----------|----------0--------0--------0--------0------------
B|--3--------3-----|-------3--------3--------3--------3-----3p2-------
G|--2--------------|--2/4--------2--------0--------2-------------4\2--
D|--0-----0-----0--|--------------------------------------------------
A|-----------------|--------------------------------------------------
E|-----------------|--------------------------------------------------

http://www.guitartabcreator.com
Guitar Tab Creator is intended to store guitar tab created through the tool. It currently does not support in-line text editing. Any text you place in here will be lost. If you need to comment on your tab, please use the "Tab Notes" section located below.