riff #1

(/) Slide Up  (\) Slide Down  (h) Hammer On  (p) Pull Off  (b) Bend (r) Release (v) Vibrato


e|-----------------------------------------------|------------xxx---|
B|-----------------------------------------------|------------xxx---|
G|--------7--5-------5h7-------------------------|------------xxx---|
D|--------7--5---7---5h7---------5---------------|------------xxx---|
A|---------------7---------5h6h7---7----5p3---3--|--5-5-5s/7--xxx---|
E|--5-5-------------------------------------5----|--3-3-3s/5--xxx---|

e|-----------------------------------------
B|--------------------------------------------
G|-------------------------------------------
D|--------------------------------------------
A|-5-5-5s/7----7-7-7-7-7-7---------------------
E|-3-3-3s/5----5-5-5-5-5-5--------------------


Idee 1 ****(eerste 2 noten, 5e fret E snaar, palmmute), met de x'jes bedoel ik het door strummen van het ritme zonder noten te raken, dus gewoon door alle snaren te dempen, maar dat snapte je waarschijnlijk al wel.

__________________________________________________________________________________________________

e|--------------------------------------|-----------------------------------------------
B|-------------------5p3p0--------------|-----------------------------------------------
G|---------------------------2p0---0----|-----------------------------------------------
D|-------------------------------2---2--|----------9-9-9---------7-7-7------------------
A|--------------------------------------|----------7-7-7---------5-5-5------------------
E|-0-0-0-0-0-0-0-0----------------------|----0-0-0---------0-0-0-----------------------

Idee 2**** (alle noten op de lage E zijn palmmuted)
___________________________________________________________________________________________________

e|Dit 3 keer spelen en daarna pas de 2 powerchords (C en D)
B|-------------------------|
G|----------5--------------|
D|-5h7--5-7-5-7------5-7---|
A|-0----5-7---7------3-5---|
E|-------------------------|

daarna dit:

e|--------------------------------|
B|--------------------------------|
G|--------------------------------|
D|---2-----------5---------7------|
A|---0-----------3---------5------|
E|--------------------------------|

Idee 3 ****
___________________________________________________________________________________________________
Guitar Tab Creator is intended to store guitar tab created through the tool. It currently does not support in-line text editing. Any text you place in here will be lost. If you need to comment on your tab, please use the "Tab Notes" section located below.