song 1

(/) Slide Up  (\) Slide Down  (h) Hammer On  (p) Pull Off  (b) Bend (r) Release (v) Vibrato
E|--5-----5-----5-----5--7--2-----2-----2-----2-----2-----2-----2-----2-----2-----2-----2-----2--3--
B|-----3-----3-----3-----------3-----3-----3-----3-----2-----2-----2-----2-----2-----2-----2--------
G|--------------------------------------------------------------------------------------------------
D|--------------------------------------------------------------------------------------------------
A|--------------------------------------------------------------------------------------------------
E|--------------------------------------------------------------------------------------------------



E|-------------------------------------------------------------
B|-------------------------------------------------------------
G|--11h12p11--7--9--7--0--7--------7h9p7-----12--11--9----9----
D|----------------------------------------9--------------------
A|-------------------------------------------------------------
E|-------------------------------------------------------------



E|--------------------------------------------------------------------
B|--------------------------------------------------------------------
G|-9-9-9-11-9-9-12-9-7-7-7-9-7-7-11-7-4-4-4-5-4-0-2-2-2-2-2-2-4-4-5-5-
D|--------------------------------------------------------------------
A|--------------------------------------------------------------------
E|--------------------------------------------------------------------



E|--------------------------------------------------------------------
B|----------------------------------------------------------------2-2-
G|-9-9-9-11-9-9-12-9-7-7-7-9-7-7-11-7-4-4-4-5-4-0-2-2-2-2-2-2-4-4-----
D|--------------------------------------------------------------------
A|--------------------------------------------------------------------
E|--------------------------------------------------------------------



E|--------------------5--2--------------------------------------------------------------------------
B|--3--3--3--3--3--3--------2--2--2--2--2-----------------------------------------------------------
G|-----------------------------------------2--2--7--------7--------7--------------------------------
D|--------------------------------------------------4--5-----4--5-----4--5--5--5--5--5--5--5--5--5--
A|--------------------------------------------------------------------------------------------------
E|--------------------------------------------------------------------------------------------------
http://www.guitartabcreator.com
Guitar Tab Creator is intended to store guitar tab created through the tool. It currently does not support in-line text editing. Any text you place in here will be lost. If you need to comment on your tab, please use the "Tab Notes" section located below.