Nightmare

(/) Slide Up  (\) Slide Down  (h) Hammer On  (p) Pull Off  (b) Bend (r) Release (v) Vibrato


E|--------------------------------------------------
B|--------------------------------------------------
G|--------------------------------------------------
D|--2--------2--3--5p3p2--0--2----------------------
A|-----3--0---------------------3--0--------3--0----
E|------------------------------------4--0----------



E|--------------------------------------------------------------------------------------
B|--------------------------------------------------------------------------------------
G|--------------------------------------------------------------------------------------
D|--2--------2--------2--------2--------2-----2--3--2-----------2--3--2-----------2--3--
A|-----3--0-----3--0-----3--0-----3--0-----3-----------3-----3-----------3-----3--------
E|--------------------------------------------------------4-----------------4-----------
http://www.guitartabcreator.com
Guitar Tab Creator is intended to store guitar tab created through the tool. It currently does not support in-line text editing. Any text you place in here will be lost. If you need to comment on your tab, please use the "Tab Notes" section located below.