Lead Riff for start of song with bobby

(/) Slide Up  (\) Slide Down  (h) Hammer On  (p) Pull Off  (b) Bend (r) Release (v) Vibrato

E|------------------------------------------------------------
B|------------------------------------------------------------
G|-----9--11--12-----9--11--12--11--9--11--12--11--9--11--12--
D|--9-------------9-------------------------------------------
A|------------------------------------------------------------
E|------------------------------------------------------------



E|--------------------------------------------------
B|--------4--5--------4--5--------4--5--4-----------
G|-----4-----------4-----------4-----------5--4--4--
D|--4-----------4-----------4-----------------------
A|--------------------------------------------------
E|--------------------------------------------------



E|---------------------------------------------------------------------------------------
B|---------------------------------------------------10---------10---------10---------10-
G|---9-11-12---9-11-12----9-11-12----9-11-12----9-11-------9-11-------9-11-------9-11----
D|-9---------9---------10---------10---------12---------12---------12---------12---------
A|---------------------------------------------------------------------------------------
E|---------------------------------------------------------------------------------------
http://www.guitartabcreator.com
Guitar Tab Creator is intended to store guitar tab created through the tool. It currently does not support in-line text editing. Any text you place in here will be lost. If you need to comment on your tab, please use the "Tab Notes" section located below.