ghost town riff

(/) Slide Up  (\) Slide Down  (h) Hammer On  (p) Pull Off  (b) Bend (r) Release (v) Vibrato

E|----------------------------------------------------------------------------------
B|----------------------------------------------------------------------------------
G|------------------------------------------------------------------12--14--15--14--
D|--12--14--15--14--12--14--15--14--12--14--15--14--12--14--15--14------------------
A|----------------------------------------------------------------------------------
E|----------------------------------------------------------------------------------



E|----------------------------------------------------------------------------------
B|--------------------------------------------------12--14--15--14--12--14--15--14--
G|--12--14--15--14--12--14--15--14--12--14--15--14----------------------------------
D|----------------------------------------------------------------------------------
A|----------------------------------------------------------------------------------
E|----------------------------------------------------------------------------------



E|----------------------------------12--14--15--14--12--14--15--14--12--14--15--14--
B|--12--14--15--14--12--14--15--14--------------------------------------------------
G|----------------------------------------------------------------------------------
D|----------------------------------------------------------------------------------
A|----------------------------------------------------------------------------------
E|----------------------------------------------------------------------------------



E|--12--14--15--14--17/
B|---------------------
G|---------------------
D|---------------------
A|---------------------
E|---------------------
http://www.guitartabcreator.com
Guitar Tab Creator is intended to store guitar tab created through the tool. It currently does not support in-line text editing. Any text you place in here will be lost. If you need to comment on your tab, please use the "Tab Notes" section located below.