violin translation

(/) Slide Up  (\) Slide Down  (h) Hammer On  (p) Pull Off  (b) Bend (r) Release (v) Vibrato


E|--------------------------------------------------
B|--------------------------------------------------
G|--9-----------9-----------------------------------
D|-----7--6--7-----7--6--7--4--0--2--2--4--0--2--2--
A|--------------------------------------------------
E|--------------------------------------------------



E|--------------------------------------------------
B|--------------------------------------------------
G|--9-----------9-----------------------------------
D|-----7--6--7-----7--6--7--4--0--2--2--4--0--2--2--
A|--------------------------------------------------
E|--------------------------------------------------



E|--------------------------------------------------------------------------------------
B|--------------------------------------------------------------------------------------
G|-----------4--6--4--------------------------------------------------------------------
D|--4--6--7-----------7--7--6h7p6p0--4--4--4h6p4p0--2--2--6h7p6p0--4--4--4h6p4p0--2--2--
A|--------------------------------------------------------------------------------------
E|--------------------------------------------------------------------------------------



E|--------------------------------------------------
B|--------------------------------------------------
G|--------------------------------------------------
D|-----2-----2--4--6--4--2-----2-----2--4--6--4--2--
A|--2-----2-----------------2-----2-----------------
E|--------------------------------------------------



E|--------------------------------------------------
B|--------------------------------------------------
G|--------------------------------------------------
D|-----0-----0--2--4--2--0-----0-----0--2--4--2--0--
A|--0-----0-----------------0-----0-----------------
E|--------------------------------------------------



E|----------------------------------------------------
B|----------------------------------------------------
G|----------------------------------------------------
D|-----0--2--4-----0--4--6-----0--6--7--9-------------
A|--0-----------0-----------0-------------------------
E|----------------------------------------------------



E|----------------------------------------------------
B|----------------------------------------------------
G|----------------------------------------------------
D|-----0--12--11-----0--11--9-----0--9--7--6----------
A|--0-------------0------------0----------------------
E|----------------------------------------------------



E|---------------------------------------------------
B|---------------------------------------------------
G|---------------------------------------------------
D|--9--7--4--2--9--7--4--2--9--7--11--6--9--7--4--2--
A|---------------------------------------------------
E|---------------------------------------------------



E|--
B|--
G|--
D|--
A|--
E|--
http://www.guitartabcreator.com
Guitar Tab Creator is intended to store guitar tab created through the tool. It currently does not support in-line text editing. Any text you place in here will be lost. If you need to comment on your tab, please use the "Tab Notes" section located below.