D Thing

(/) Slide Up  (\) Slide Down  (h) Hammer On  (p) Pull Off  (b) Bend (r) Release (v) Vibrato


E|----------------------------------------------
B|----------------------------------------------
G|-------5-----6--7--5--------------------------
D|----7-----7-----------8--7--5--6--------7--7--
A|----------------------------------7--8--------
E|----------------------------------------------



E|--------------------------------------------
B|--------------------------------------------
G|-----5-----6--7--5--------------------7--7--
D|--7-----7-----------8--7--5--6--------------
A|--------------------------------8--9--------
E|--------------------------------------------



E|--
B|--
G|--
D|--
A|--
E|--
http://www.guitartabcreator.com
Guitar Tab Creator is intended to store guitar tab created through the tool. It currently does not support in-line text editing. Any text you place in here will be lost. If you need to comment on your tab, please use the "Tab Notes" section located below.