Untitled nice sounding shit

(/) Slide Up  (\) Slide Down  (h) Hammer On  (p) Pull Off  (b) Bend (r) Release (v) Vibrato


E|------------------------------------------------------------------------------------------
B|------------------------------------------------------------------------------------------
G|------15------15------19------19------------------14------14------17------17--------------
D|----------17------17------17------19--17--15----------15------15------15------17--15--13--
A|--17------------------------------------------15------------------------------------------
E|------------------------------------------------------------------------------------------



E|----------------------------------------------------------------------
B|----------------------------------------------------------------------
G|------15------15------19------19------------------14------14------17--
D|----------17------17------17------19--17--15----------15------15--15--
A|--17------------------------------------------15----------------------
E|----------------------------------------------------------------------



E|----------------------------------------------
B|----------------------------------------------
G|--15--14--11--15--14--11------11------11------
D|--17--15--12--17--15--12----------12----------
A|--17--15--12--17--15--12--12--------------15--
E|----------------------------------------------



E|-------------------------------------------------------------------------------------------------
B|-------------------------------------------------------------------------------------------------
G|----15----15----15----15----14----14----14----14----15----15----15----15----14----14----14-------
D|-------17----------17----------15----------15----------17----------17----------15----------15----
A|-17----------17----------15----------15----------17----------17----------15----------15-------15-
E|-------------------------------------------------------------------------------------------------



E|-------------------------------------------------------
B|-------------------------------------------------------
G|-------------15----19----14-------------17----14----12-
D|-17----17----17----17----17-15----15----15----15----15-
A|-17-17-17-17-17-17-17-17-17-15-15-15-15-15-15-15-15-15-
E|-------------------------------------------------------
http://www.guitartabcreator.com
Guitar Tab Creator is intended to store guitar tab created through the tool. It currently does not support in-line text editing. Any text you place in here will be lost. If you need to comment on your tab, please use the "Tab Notes" section located below.