Tab for ben THIS IS IN EBEG#BE

(/) Slide Up  (\) Slide Down  (h) Hammer On  (p) Pull Off  (b) Bend (r) Release (v) Vibrato
E|----------------------------------------------------------
B|----------------------------------------------------------
G|-----------------0h3p0----------------------0h3p0---------
D|--------7-----0---------4p0--------7-----0---------4/7p0--
A|-----0-----0--------------------0-----0-------------------
E|--4--------------------------4----------------------------



E|-----------------------------------------
B|-----------------------------------------
G|-----------------0h3p0-------------------
D|--------7-----0---------4p0--------7--4--
A|-----0-----0--------------------0-----5--
E|--4--------------------------4--------5--



E|-----------------------------------------------------------------------------
B|--------------------12---------------------------------------12--------------
G|------------------------------------------12---------------------------------
D|--------7--------7------------7--------7------------7------------------7--4--
A|-----0--------5------------0--------5------------0--------5---------0-----5--
E|--4--------5------------4--------5------------4--------5---------4--------5--



E|------------------------------------------------
B|------------------------------------------------
G|------------------------------------------------
D|--4--------4--------4--------4--------0h4p0-----
A|-----5--------5--------5--------5------------5--
E|--------5--------5--------5--------5------------



E|-----------------------------------------
B|-----------------------------------------
G|-----------------------------------------
D|--4--------4--------4--------4--------7--
A|-----5--------5--------5--------5-----5--
E|--------5--------5--------5--------5--5--



E|--0--7--
B|--0--0--
G|--3--0--
D|--4--7--
A|--5--5--
E|--5--5--
http://www.guitartabcreator.com
Guitar Tab Creator is intended to store guitar tab created through the tool. It currently does not support in-line text editing. Any text you place in here will be lost. If you need to comment on your tab, please use the "Tab Notes" section located below.