NewChoon-WakefieldRoad

(/) Slide Up  (\) Slide Down  (h) Hammer On  (p) Pull Off  (b) Bend (r) Release (v) Vibrato


E|------------------------------------------------------------------------------------------
B|------------------------------------------------------------------------------------------
G|------15------15------19------15------------------14------14------17------14--------------
D|----------17------17------17------19--17--15----------15------15------15------17--15--13--
A|--17------------------------------------------15------------------------------------------
E|------------------------------------------------------------------------------------------



E|------------
B|------------
G|------------
D|--8---7--4--
A|--10--8--5--
E|--10--8--5--



E|------------------------------------------------------------------
B|------------------------------------------------------------------
G|------15------15------15------15------15------15--19--15--14------
D|----------17--------------17--------------17------------------17--
A|--17--------------17--------------17------------------------------
E|------------------------------------------------------------------



E|------------------------------------------------------------------
B|------------------------------------------------------------------
G|------14------14------14------14------14------14--17--14----------
D|----------15--------------15--------------15--------------17--15--
A|--15--------------15--------------15------------------------------
E|------------------------------------------------------------------



E|----------------------------------
B|----------------------------------
G|------15--19--14------17--14--12--
D|------17--------------15----------
A|--17--17----------15--15----------
E|----------------------------------



E|-------------------------------------------------------------------
B|-------------------------------------------------------------------
G|-------------------------------------------------------------------
D|--------------8---------------12--7------------10-----------7------
A|--------------10--------------10--10-----------8------------8------
E|--10--10--10--10--10--10--10--10--10--8--8--8--8---8--8--8--8------
http://www.guitartabcreator.com
Guitar Tab Creator is intended to store guitar tab created through the tool. It currently does not support in-line text editing. Any text you place in here will be lost. If you need to comment on your tab, please use the "Tab Notes" section located below.