Luke Sends Postcards Rhythm (Tuning is EBEG#BE)

(/) Slide Up  (\) Slide Down  (h) Hammer On  (p) Pull Off  (b) Bend (r) Release (v) Vibrato
E|--11---------11--11--------11--13--11-----11---------11--11--11--
B|----------9-------------9--------------9----------9------9---9---
G|------11-------------9------------------------11---------11--9---
D|-----------------------------------------------------------------
A|-----------------------------------------------------------------
E|-----------------------------------------------------------------



E|---------------------------------------------------------------------------
B|---------------------------------------------------------------------------
G|-------------------------------------------12--12--12--11--11--11--11--11--
D|--11--11--11--11--11--6/8--11--11--11--11--11--11--11--11--11--11--11--11--
A|--9---9---9---9---9---9----9---9---9---9---9---9---9---9---9---9---9---9---
E|--9---9---9---9---9---9----11--11--11--11--11--11--11--11--11--11--11--11--



E|--------------
B|--------------
G|--11--11--12--
D|--11--11--11--
A|--9---9---9---
E|--9---11--11--



E|------
B|------
G|--14--
D|--11--
A|--9---
E|--11--
http://www.guitartabcreator.com
Guitar Tab Creator is intended to store guitar tab created through the tool. It currently does not support in-line text editing. Any text you place in here will be lost. If you need to comment on your tab, please use the "Tab Notes" section located below.