your warrior

(/) Slide Up  (\) Slide Down  (h) Hammer On  (p) Pull Off  (b) Bend (r) Release (v) Vibrato
E|---------------------------------------------------------------------------
B|---------------------------------------------------------------------------
G|--10p3h6p3--10p3h6p3--10p3h6p3--10p3h6p3--11p3h6p3--11p3h6p3--11p3h6p3-----
D|---------------------------------------------------------------------------
A|---------------------------------------------------------------------------
E|---------------------------------------------------------------------------



E|---------------------------------------------------------------------------
B|---------------------------------------------------------------------------
G|--11p3h6p3--13p3h6p3--13p3h6p3--13p3h6p3--13p3h6p3--11p3h6p3--11p3h6p3-----
D|---------------------------------------------------------------------------
A|---------------------------------------------------------------------------
E|---------------------------------------------------------------------------



E|------------------------------------------------------------------------
B|------------------------------------------------------------------------
G|--11p3h6p3--11p3h6p3--10p3h6p3--10p3h6p3--10p3h6p3--10p3h6p3--11p3h6p3--
D|------------------------------------------------------------------------
A|------------------------------------------------------------------------
E|------------------------------------------------------------------------



E|------------------------------------------------------------------------
B|------------------------------------------------------------------------
G|--11p3h6p3--11p3h6p3--11p3h6p3--13p3h6p3--13p3h6p3--13p3h6p3--11p3h6p3--
D|------------------------------------------------------------------------
A|------------------------------------------------------------------------
E|------------------------------------------------------------------------



E|--------------------------------
B|--------------------------------
G|--11p3h6p3--11p3h6p3--11p3h6p3--
D|--------------------------------
A|--------------------------------
E|--------------------------------



E|---------------------------------------------------------------------------
B|--10p3h6p3--10p3h6p3--10p3h6p6--10p3h6p3--11p3h6p3--11p3h6p3--11p3h6p3-----
G|---------------------------------------------------------------------------
D|---------------------------------------------------------------------------
A|---------------------------------------------------------------------------
E|---------------------------------------------------------------------------



E|------------------------------------------------------------------------
B|--11p3h6p3--13p3h6p3--13p3h6p3--13p3h6p3--13p3h6p3--11p3h6p3--11p3h6p3--
G|------------------------------------------------------------------------
D|------------------------------------------------------------------------
A|------------------------------------------------------------------------
E|------------------------------------------------------------------------



E|------------------------------------------------------------------------
B|--11p3h6p3--11p3h6p3--10p3h6p3--10p3h6p3--10p3h6p3--10p3h6p3--11p3h6p3--
G|------------------------------------------------------------------------
D|------------------------------------------------------------------------
A|------------------------------------------------------------------------
E|------------------------------------------------------------------------



E|------------------------------------------------------------------------
B|--11p3h6p3--11p3h6p3--11p3h6p3--13p3h6p3--13p3h6p3--13p3h6p3--13p3h6p3--
G|------------------------------------------------------------------------
D|------------------------------------------------------------------------
A|------------------------------------------------------------------------
E|------------------------------------------------------------------------



E|------------------------------------------
B|--11p3h6p3--11p3h6p3--11p3h6p3--11p3h6p3--
G|------------------------------------------
D|------------------------------------------
A|------------------------------------------
E|------------------------------------------



E|----------------------------------------------------------------------------------
B|----------------------------------------------------------------------------------
G|-----7-----9-----10-----9-----7-----9-----10-----9-----5-----7-----9-----7--------
D|--7-----7-----7------7-----7-----7-----7------7-----5-----5-----5-----5-----5-----
A|----------------------------------------------------------------------------------
E|----------------------------------------------------------------------------------



E|-------------------------------------------------------------------------
B|-------------------------------------------------------------------------
G|--5-----7-----9-----7-----7-----9-----10-----9-----7-----9-----10-----9--
D|-----5-----5-----5-----7-----7-----7------7-----7-----7-----7------7-----
A|-------------------------------------------------------------------------
E|-------------------------------------------------------------------------



E|-----------------------------------------------------------------------------------------------
B|-----------------------------------------------------------------------------------------------
G|-----5-----7-----9-----7-----5-----7-----9-----7-----3-----5-----7-----5-----7-----9-----7-----
D|--5-----5-----5-----5-----5-----5-----5-----5-----5-----3-----3-----3-----5-----5-----5--------
A|-----------------------------------------------------------------------------------------------
E|-----------------------------------------------------------------------------------------------



E|---------------------------------
B|---------------------------------
G|-----7-----9-----10-----9-----7--
D|--7-----7-----7------7-----7-----
A|---------------------------------
E|---------------------------------



E|----------------------------------------------------------------------------
B|----------------------------------------------------------------------------
G|--7--9--10--9--7--9--10--9--5--7--9--7--5--7--9--7--3--5--7--5--3--5--7--5--
D|----------------------------------------------------------------------------
A|----------------------------------------------------------------------------
E|----------------------------------------------------------------------------



E|-------------------------------------------------------------------------------
B|-------------------------------------------------------------------------------
G|--5--7--9--7--5--7--9--7--7--9--10--9--7--9--10--9--5--7--9--7--5--7--9--7-----
D|-------------------------------------------------------------------------------
A|-------------------------------------------------------------------------------
E|-------------------------------------------------------------------------------



E|----------------------------------------------------------------------------
B|----------------------------------------------------------------------------
G|--3--5--7--5--3--5--7--5--5--7--9--7--5--7--9--7--7--9--10--9--7--9--10--9--
D|----------------------------------------------------------------------------
A|----------------------------------------------------------------------------
E|----------------------------------------------------------------------------



E|--------------------------------------------------------------------------
B|--------------------------------------------------------------------------
G|--10--12--14--12--10--12--14--12--5--7--9--7--5--7--9--7--7--9--10--9--7--
D|--------------------------------------------------------------------------
A|--------------------------------------------------------------------------
E|--------------------------------------------------------------------------



E|-------------------------------------------------------------------------------------
B|-------------------------------------------------------------------------------------
G|-------------------------------------------------------------------------------------
D|--7--------------------9--------10--------7--------------------12----------10--------
A|--5--5--5--5--5--5--5--7--7--7--8---8--8--5--5--5--5--5--5--5--10--10--10--8---8--8--
E|-------------------------------------------------------------------------------------



E|------------------------------------------------------------
B|------------------------------------------------------------
G|---------------------------------------------------------7--
D|------------------------------------------------------------
A|--8--------------------10--7--------8--7--8--7--8--7--5-----
E|--6--6--6--6--6--6--6--8---5--5--5--------------------------



E|-----------------------------------------------------------------------------
B|-----------------------------------------------------------------------------
G|-----------------------------------------------------------------------------
D|-----------------------------------------------------------------------------
A|--5--5--5/8--8--8/10--10--10-3--3--3--5--5--5/8--8--8/12--12--12\10--10--10--
E|--3--3--3-6--6--6-8---8---8-\1--1--1--3--3--3-6--6--6-10--10--10-8---8---8---



E|-----------------------------------------------------------------------------------------
B|-----------------------------------------------------------------------------------------
G|--14--16--17--14--16--17--14--16--17--14--16--17--12--14--16--12--14--16--12--14--16-----
D|-----------------------------------------------------------------------------------------
A|-----------------------------------------------------------------------------------------
E|-----------------------------------------------------------------------------------------



E|--------------------------------------------------------------------------------------
B|--------------------------------------------------------------------------------------
G|--12--14--16--10--12--14--10--12--14--10--12--14--10--12--14--12--14--16--12--14--16--
D|--------------------------------------------------------------------------------------
A|--------------------------------------------------------------------------------------
E|--------------------------------------------------------------------------------------



E|----------------------------------------------------------------------------------------
B|----------------------------------------------------------------------------------------
G|--12--14--16--12--14--16--14--16--17--14--16--17--14--16--17--14--16--17--17b14--17-----
D|----------------------------------------------------------------------------------------
A|----------------------------------------------------------------------------------------
E|----------------------------------------------------------------------------------------



E|----------------------------------------------------------------------------------------------
B|----------------------------------------------------------------------------------------------
G|----------------------------------------------------------------------15--17--15--------------
D|--15--15--17--18--18--17----------15------------------15--15--17--18--------------18--17--15--
A|--------------------------18--18------15--15--17--18------------------------------------------
E|----------------------------------------------------------------------------------------------



E|--------------------------------------------------------------------------------------------
B|---------12--15---------12--15---------12--15---------14--17---------14--17---------14--17--
G|--14b14----------14b14----------14b14----------16b16----------16b16----------16b16----------
D|--------------------------------------------------------------------------------------------
A|--------------------------------------------------------------------------------------------
E|--------------------------------------------------------------------------------------------



E|------------------------------------------------------
B|---------16--19---------16--19---------16--19--21b21--
G|--18b18----------18b18----------18b18-----------------
D|------------------------------------------------------
A|------------------------------------------------------
E|------------------------------------------------------
http://www.guitartabcreator.com
Guitar Tab Creator is intended to store guitar tab created through the tool. It currently does not support in-line text editing. Any text you place in here will be lost. If you need to comment on your tab, please use the "Tab Notes" section located below.