til death do us part

(/) Slide Up  (\) Slide Down  (h) Hammer On  (p) Pull Off  (b) Bend (r) Release (v) Vibrato


E|--------------------------------------------------
B|--------------------------------------------------
G|--------------------------------------------------
D|--------------7-----------------------------------
A|-----9--7--9-----9--7--9--5--7--5--4--5--4-----4--
E|--7-----------------------------------------5-----



E|--------
B|--------
G|--------
D|--7--6--
A|--5--4--
E|--------



E|--------------------------------------------------------------------------
B|--------------------------------------------------------------------------
G|--------------------------------------------------------------------------
D|--------------------------------------------------------------------------
A|--9--9--9--9--9--9--4--4--4--4--4--4--5--5--5--5--5--5--1--1--1--1--1--1--
E|--7--7--7--7--7--7--2--2--2--2--2--2--3--3--3--3--3--3--0--0--0--0--0--0--



E|-------------------------------------------------------------------------
B|-------------------------------------------------------------------------
G|-------------------------------------------------------------------------
D|-------------------------------------------------------------------------
A|--9--9--9--9--9--9--4--4--4--4--4--4--12--12--12--12--12--7--7--7--7--7--
E|--7--7--7--7--7--7--2--2--2--2--2--2--10--10--10--10--10--5--5--5--5--5--



E|--------------------------------------------------------------------------------------------
B|--------------------------------------------------------------------------------------------
G|--------0--------0--------------0--------0--------------0--------0--------------0--------0--
D|-----9--------9--------9-----7--------7--------7-----7--------7--------7-----7--------7-----
A|--7--------7--------7-----5--------5--------5-----4--------4--------4-----5--------5--------
E|--------------------------------------------------------------------------------------------



E|-----------------------------------------------------------------------------------
B|-----------------------------------------------------------------------------------
G|--------------0--------0--------------0--------0--------------0--------0-----------
D|-----7-----9--------9--------9-----7--------7--------7-----7--------7--------7-----
A|--5-----7--------7--------7-----5--------5--------5-----4--------4--------4--------
E|-----------------------------------------------------------------------------------



E|-----------------------------------------------------------------------------------
B|-----------------------------------------------------------------------------------
G|--------0--------0--------------0--------0----------------0----------0-------------
D|-----7--------7--------7-----9--------9--------9------12---------12---------12-----
A|--5--------5--------5-----7--------7--------7-----10---------10---------10---------
E|-----------------------------------------------------------------------------------



E|--------------------------------------------------------------------------
B|--------------------------------------------------------------------------
G|--------0--------0--------------0--------0--------------0--------0--------
D|-----7--------7--------7-----7--------7--------7-----9--------9--------9--
A|--5--------5--------5-----4--------4--------4-----7--------7--------7-----
E|--------------------------------------------------------------------------



E|-----------------------------------------------------------------------------
B|-----------------------------------------------------------------------------
G|--------0--------0--------------0--------0--------------0--------0--------0--
D|-----7--------7--------7-----7--------7--------7-----7--------7--------7--7--
A|--5--------5--------5-----4--------4--------4-----5--------5--------5-----5--
E|-----------------------------------------------------------------------------



E|--------------------------------------------------------------------------
B|--------0--------0--------------0--------0--------------0--------0--------
G|-----9--------9--------9-----7--------7--------7-----7--------7--------7--
D|--7--------7--------7-----5--------5--------5-----4--------4--------4-----
A|--------------------------------------------------------------------------
E|--------------------------------------------------------------------------



E|--------------------------------------------------------------------------
B|--------0--------0--------------0--------0--------------0--------0--------
G|-----7--------7--------7-----9--------9--------9-----7--------7--------7--
D|--5--------5--------5-----7--------7--------7-----5--------5--------5-----
A|--------------------------------------------------------------------------
E|--------------------------------------------------------------------------



E|--------------------------------------------------------------------------
B|--------0--------0--------------0--------0--------------0--------0--------
G|-----7--------7--------7-----7--------7--------7-----9--------9--------9--
D|--4--------4--------4-----5--------5--------5-----7--------7--------7-----
A|--------------------------------------------------------------------------
E|--------------------------------------------------------------------------



E|--------------------------------------------------------------------------------
B|----------0----------0----------------0--------0--------------0--------0--------
G|------12---------12---------12-----7--------7--------7-----7--------7--------7--
D|--10---------10---------10------5--------5--------5-----4--------4--------4-----
A|--------------------------------------------------------------------------------
E|--------------------------------------------------------------------------------



E|-----------------------------------------------------------------------------
B|--------0--------0--------------0--------0--------------0--------0--------0--
G|-----9--------9--------9-----7--------7--------7-----7--------7--------7--7--
D|--7--------7--------7-----5--------5--------5-----4--------4--------4-----5--
A|-----------------------------------------------------------------------------
E|-----------------------------------------------------------------------------
http://www.guitartabcreator.com
Guitar Tab Creator is intended to store guitar tab created through the tool. It currently does not support in-line text editing. Any text you place in here will be lost. If you need to comment on your tab, please use the "Tab Notes" section located below.