forgive or forget

(/) Slide Up  (\) Slide Down  (h) Hammer On  (p) Pull Off  (b) Bend (r) Release (v) Vibrato

E|--------------------------------------------------------------------------------------------
B|--------------------------------------------------------------------------------------------
G|--------------------------------------------------------------------------------------------
D|--------------------------------------------------------------------------------------------
A|-----5--4--3--4-----5--4--3--4-----5--4--3--4-----5--4--3--4-----3--2--1--2-----3--2--1--2--
E|--3--------------3--------------3--------------3--------------1--------------1--------------



E|--------------------------------------------------------------------------------------------
B|--------------------------------------------------------------------------------------------
G|--------------------------------------------------------------------------------------------
D|--------------------------------------------------------------------------------------------
A|-----3--2--1--2-----3--2--1--2-----5--4--3--4-----5--4--3--4-----5--4--3--4-----5--4--3--4--
E|--1--------------1--------------3--------------3--------------3--------------3--------------



E|--------------------------------------------------------------------------------------------
B|--------------------------------------------------------------------------------------------
G|--------------------------------------------------------------------------------------------
D|--------------------------------------------------------------------------------------------
A|-----3--2--1--2-----3--2--1--2-----3--2--1--2-----3--2--1--2-----7--6--5--6-----7--6--5--6--
E|--1--------------1--------------1--------------1--------------5--------------5--------------



E|--------------------------------------------------------------------------------------------
B|--------------------------------------------------------------------------------------------
G|--------------------------------------------------------------------------------------------
D|--------------------------------------------------------------------------------------------
A|-----7--6--5--6-----7--6--5--6-----9--8--7--8-----9--8--7--8-----9--8--7--8-----9--8--7--8--
E|--5--------------5--------------7--------------7--------------7--------------7--------------



E|--------------------------------------------------------------------
B|--------------------------------------------------------------------
G|--------------------------------------------------------------------
D|--------------------------------------------------------------------
A|-----9--8--7--8-----7--6--5--6-----5--4--3--4-----3--2--1--2--------
E|--7--------------5--------------3--------------1--------------1--0--



E|--------------------------------------------------------------
B|--------------------------------------------------------------
G|--------------------------------------------------------------
D|--------------------------------------------------------------
A|--------------------------------------------------5--4--3--4--
E|--0--0--0--1--0--0--1--0--0--0--0--0--1--0--0--3--------------



E|--------------------------------------------------------------
B|--------------------------------------------------------------
G|--------------------------------------------------------------
D|--------------------------------------------------5--4--3--4--
A|--0--0--0--3--0--0--3--0--0--0--0--0--3--0--0--3--------------
E|--------------------------------------------------------------



E|--------------------------
B|--------------------------
G|--------------------------
D|--------------7--5--8--7--
A|--7--5--8--5--5--3--6--5--
E|--5--3--6--3--------------



E|--------------------------------------------------------------------------
B|--------------------------------------------------------------------------
G|--------------------------------------------------------------------------
D|--------------------------------------------------------------------------
A|--------------------------------------------------------------------------
E|--4--3--2--1--4--3--2--1--5--4--3--2--4--3--2--1--5--4--3--2--6--5--4--3--



E|-----------------------------------------------------------------------------------------
B|-----------------------------------------------------------------------------------------
G|-----------------------------------------------------------------------------------------
D|-----------------------------------------------------------------------------------------
A|-----------------------------------------------------------------------------------------
E|--5--4--3--2--6--5--4--3--5--4--3--2--6--5--4--3--7--6--5--4--6--5--4--3--7--6--5--4-----



E|--------------------------------------------
B|--------------------------------------------
G|--------------------------------------------
D|--------------------------------5--4--3--4--
A|-----------------5--4--3--4--3--------------
E|--8--7--6--5--3-----------------------------



E|-------------------------------------------------------------------------------------
B|-------------------------------------------------------------------------------------
G|--21--20--19--18--20--19--18--17--19--18--17--16--18--17--16--15--17--16--15--14-----
D|-------------------------------------------------------------------------------------
A|-------------------------------------------------------------------------------------
E|-------------------------------------------------------------------------------------



E|-----------------------------------------------------------------------------------------
B|-----------------------------------------------------------------------------------------
G|--16--15--14--13--15--14--13--12--13--12--14--13--12--11--13--12--11--10--12--11--10--9--
D|-----------------------------------------------------------------------------------------
A|-----------------------------------------------------------------------------------------
E|-----------------------------------------------------------------------------------------



E|---------------------------------------------------------------------------------------------
B|---------------------------------------------------------------------------------------------
G|---------------------------------------------------------------------------------------------
D|---------------------------------------------------------------------------------------------
A|--11--11--11--13--13--13--14--14--14--16--16--16--11--11--11--13--13--13--14--14--14--18-----
E|---------------------------------------------------------------------------------------------



E|----------------------------------------------------------------------------------------------
B|----------------------------------------------------------------------------------------------
G|----------------------------------------------------------------------------------------------
D|--11--11--11--13--13--13--14--14--14--16--16--16--11--11--11--13--13--13--14--14--14--18--18--
A|----------------------------------------------------------------------------------------------
E|----------------------------------------------------------------------------------------------



E|------------------------------------------------------------------------
B|------------------------------------------------------------------------
G|------------------------------------------------------------------------
D|------------------------------------------------------------------------
A|--18--18--18--18--18--18--18--18--17--17--17--17--17--17--17--17--------
E|------------------------------------------------------------------18/0--



E|-----------------------------------------------
B|-----------------------------------------------
G|-----------------------------------------------
D|-----------------------------------------------
A|-----------------------------------------------
E|--0--0--0--1--0--0--1--0--0--0--0--0--1--0--0--
http://www.guitartabcreator.com
Guitar Tab Creator is intended to store guitar tab created through the tool. It currently does not support in-line text editing. Any text you place in here will be lost. If you need to comment on your tab, please use the "Tab Notes" section located below.