breaking me down

(/) Slide Up  (\) Slide Down  (h) Hammer On  (p) Pull Off  (b) Bend (r) Release (v) Vibrato


E|--------------------------------------------------------------------------
B|--------------------------------------------------------------------------
G|--------------------------------------------------------------------------
D|-----2-----2-----2-----2-----2-----2-----2-----2-----2-----2-----2-----2--
A|--0-----0-----0-----3-----3-----3-----2-----2-----2-----------------------
E|--------------------------------------------------------3-----3-----3-----



E|--------------------------------------------------------------------------
B|--------------------------------------------------------------------------
G|--------------------------------------------------------------------------
D|-----2-----2-----2-----2-----2-----2-----2-----2-----2-----2-----2-----2--
A|--0-----0-----0-----3-----3-----3-----5-----5-----5-----2-----2-----2-----
E|--------------------------------------------------------------------------



E|--------------------------------------------------------------------------------0--
B|-----------------------------------------------------------------------------------
G|-----------------------------------------------------------------------------------
D|-----2-----2-----2-----2-----2-----2-----4-----4-----4-----5-----5-----5-----5-----
A|--0-----0-----0-----3-----3-----3-----5-----5-----5-----7-----7-----7-----7--------
E|-----------------------------------------------------------------------------------



E|-----------------------------------------------------------------------------
B|-----------------------------------------------------------------------------
G|--------0--------0--------------0--------0--------------0--------0-----------
D|-----5--------5--------5-----4--------4--------4-----2--------2--------2-----
A|--7--------7--------7-----5--------5--------5-----3--------3--------3--------
E|-----------------------------------------------------------------------------



E|-----------------------------------------------------------------------------
B|-----------------------------------------------------------------------------
G|--------0--------0--------------0--------0--------------0--------0-----------
D|-----2--------2--------4-----5--------5--------5-----4--------4--------4-----
A|--3--------3--------5-----7--------7--------7-----5--------5--------5--------
E|-----------------------------------------------------------------------------



E|--------------------------------------------------
B|--------------------------------------------------
G|--------0--------0--------------0--------0--------
D|-----2--------2--------2-----2--------2--------4--
A|--3--------3--------3-----3--------3--------5-----
E|--------------------------------------------------



E|--------------0-----------------------0-----------------0--------0--------0--------0--------
B|-----------0-----0-----------------0-----0-----------0-----0--------0--------0--------0-----
G|--------0-----------0-----------0-----------------0-----------0--------0--------0--------0--
D|-----5-----------------5-----4-----------------2--------------------------------------------
A|--7-----------------------5-----------------3-----------------------------------------------
E|--------------------------------------------------------------------------------------------



E|--------------0-----------------------0-----------0-----
B|-----------0-----0-----------------0-----0--------0-----
G|--------0-----------0-----------0-----------------0-----
D|-----5-----------------5-----4-----------------2--2-----
A|--7-----------------------5-----------------3-----3-----
E|--------------------------------------------------------



E|--0-----------------------------------------------------------------------------
B|--0-----------------------------------------------------------------------------
G|--0--------0--------0--------0--------0--------0--------0--------0--------0-----
D|--4-----5--------4--------2--------4--------5--------4--------2--------4--------
A|--5--7--------5--------3--------5--------7--------5--------3--------5-----------
E|--------------------------------------------------------------------------------



E|--------------------------------------
B|--------------------------------------
G|--------0--------0--------0--------0--
D|-----5--------4--------2--------4-----
A|--7--------5--------3--------5--------
E|--------------------------------------



E|--------------0-----------------------0-----0--
B|-----------0-----0-----------------0-----0--0--
G|--------0-----------0-----------0-----------0--
D|-----5-----------------5-----4--------------2--
A|--7-----------------------5-----------------3--
E|-----------------------------------------------



E|--
B|--
G|--
D|--
A|--
E|--



E|--------------------------------------
B|--------------------------------------
G|--------------------------------------
D|--7--7--9--7--7--9--7--7--9--7--7--9--
A|--9--5--7--9--5--7--9--5--7--9--5--7--
E|--------------------------------------



E|--------------------------------------
B|--------------------------------------
G|--------------------------------------
D|--9--7--5--------5--------7--9--7--5--
A|--7--5--3--0--0--3--0--0--5--7--5--3--
E|--------------------------------------



E|-----------------------------------------------------------------------------
B|-----------------------------------------------------------------------------
G|--------0--------0--------------0--------0--------------0--------0-----------
D|-----5--------5--------5-----4--------4--------4-----2--------2--------2-----
A|--7--------7--------7-----5--------5--------5-----3--------3--------3--------
E|-----------------------------------------------------------------------------



E|--------------------------------------------------------------------------
B|--------------------------------------------------------------------------
G|--------0--------0--------------0--------0--------------0--------0--------
D|-----2--------2--------4-----5--------5--------5-----4--------4--------4--
A|--3--------3--------5-----7--------7--------7-----5--------5--------5-----
E|--------------------------------------------------------------------------



E|--------------------------------------------------
B|--------------------------------------------------
G|--------0--------0--------------0--------0--------
D|-----2--------2--------2-----2--------2--------4--
A|--3--------3--------3-----3--------3--------5-----
E|--------------------------------------------------



E|--------------0-----------------------0-----0--
B|-----------0-----0-----------------0-----0--0--
G|--------0-----------0-----------0-----------0--
D|-----5-----------------5-----4--------------2--
A|--7-----------------------5-----------------3--
E|-----------------------------------------------



E|--0--------------------------------------------------------------------------
B|--0--------------------------------------------------------------------------
G|--0--------0--------0--------0--------0--------0--------0--------0--------0--
D|--4-----5--------4--------2--------4--------5--------4--------2--------4-----
A|--5--7--------5--------3--------5--------7--------5--------3--------5--------
E|-----------------------------------------------------------------------------



E|--------------------------------------
B|--------------------------------------
G|--------0--------0--------0--------0--
D|-----5--------4--------2--------4-----
A|--7--------5--------3--------5--------
E|--------------------------------------



E|-----------------------------
B|-----------------------------
G|-----------------------------
D|--7--7--9--7--7--9--7--7--9--
A|--9--5--7--9--5--7--9--5--7--
E|-----------------------------



E|-----------------------------------------------------------
B|-----------------------------------------------------------
G|-----------------------------------------------------------
D|--9--7--5--------5--------7--9--7--5--------5--------7--9--
A|--7--5--3--0--0--3--0--0--5--7--5--3--0--0--3--0--0--5--7--
E|-----------------------------------------------------------



E|--------------------------------------------------------------------------------------
B|--8p7-----8p7-----8p7--8p7-----8p7-----8p7--7p5-----7p5-----7p5--7p5-----7p5-----7p5--
G|-------9-------9------------9-------9------------7-------7------------7-------7-------
D|--------------------------------------------------------------------------------------
A|--------------------------------------------------------------------------------------
E|--------------------------------------------------------------------------------------



E|-----------------------------------------------------------------------------------------------
B|--5p3-----5p3-----5p3--7p5-----7p5-----7p5--8p7--------------8p7-----------8p7-----------------
G|-------5-------5------------7-------7------------9--7-----7-------9--7----------9--7-----7-----
D|-------------------------------------------------------9----------------9-------------9--------
A|-----------------------------------------------------------------------------------------------
E|-----------------------------------------------------------------------------------------------



E|----------------------------------------------------
B|--8p7-----7--8--8--7-----8--7-----8--7--8--7--------
G|-------9--------------7-----------------------------
D|-------------------------------7--------------5-----
A|-------------------------------------------------7--
E|----------------------------------------------------



E|--------------------------------------------------------------------------
B|--------------------------------------------------------------------------
G|--------0--------0--------------0--------0--------------0--------0--------
D|-----5--------5--------5-----4--------4--------4-----2--------2--------2--
A|--7--------7--------7-----5--------5--------5-----3--------3--------3-----
E|--------------------------------------------------------------------------



E|--------------------------
B|--------------------------
G|--------0--------0--------
D|-----2--------2--------4--
A|--3--------3--------5-----
E|--------------------------



E|--------------------------------------------------------------------------
B|--------------------------------------------------------------------------
G|--------0--------0--------------0--------0--------------0--------0--------
D|-----5--------5--------5-----4--------4--------4-----2--------2--------2--
A|--7--------7--------7-----5--------5--------5-----3--------3--------3-----
E|--------------------------------------------------------------------------



E|--------------------------
B|--------------------------
G|--------0--------0--------
D|-----2--------2--------4--
A|--3--------3--------5-----
E|--------------------------



E|--------------0-----------------------0-----------------0--------0--------0--------0--------
B|-----------0-----0-----------------0-----0-----------0-----0--------0--------0--------0-----
G|--------0-----------0-----------0-----------------0-----------0--------0--------0--------0--
D|-----5-----------------5-----4-----------------2--------------------------------------------
A|--7-----------------------5-----------------3-----------------------------------------------
E|--------------------------------------------------------------------------------------------



E|--------------0-----------------------0-----0--
B|-----------0-----0-----------------0-----0--0--
G|--------0-----------0-----------0-----------0--
D|-----5-----------------5-----4--------------2--
A|--7-----------------------5-----------------3--
E|-----------------------------------------------



E|--------------------------------------
B|--------------------------------------
G|--------------------------------------
D|--7--7--9--7--7--9--7--7--9--7--7--9--
A|--9--5--7--9--5--7--9--5--7--9--5--7--
E|--------------------------------------



E|---------------------------------------------------------------------------------------------
B|---------------------------------------------------------------------------------------------
G|---------------------------------------------------------------------------------------------
D|--9--7--5--------5--------7--9--7--5--------5--------7--9--12--5--------5--------7--9--7--5--
A|--7--5--3--0--0--3--0--0--5--7--5--3--0--0--3--0--0--5--7--10--3--0--0--3--0--0--5--7--5--3--
E|---------------------------------------------------------------------------------------------



E|-----------------------------------------------------------------------------
B|-----------------------------------------------------------------------------
G|-----------------------------------------------------------------------------
D|--2-----2-----2-----2-----2-----2-----2-----2-----2-----2-----2-----2-----2--
A|--0--0-----0-----0-----3-----3-----3-----2-----2-----2-----------------------
E|-----------------------------------------------------------3-----3-----3-----



E|--------------------------------------------------------------------------
B|--------------------------------------------------------------------------
G|--------------------------------------------------------------------------
D|-----2-----2-----2-----2-----2-----2-----2-----2-----2-----2-----2-----2--
A|--0-----0-----0-----3-----3-----3-----5-----5-----5-----2-----2-----2-----
E|--------------------------------------------------------------------------



E|--------------------------------------------------------------0--
B|-----------------------------------------------------------------
G|-----------------------------------------------------------------
D|-----2-----2-----2-----2-----2-----2-----4-----4-----4-----5-----
A|--0-----0-----0-----3-----3-----3-----5-----5-----5-----7--------
E|-----------------------------------------------------------------
http://www.guitartabcreator.com
Guitar Tab Creator is intended to store guitar tab created through the tool. It currently does not support in-line text editing. Any text you place in here will be lost. If you need to comment on your tab, please use the "Tab Notes" section located below.