backstrike solo

(/) Slide Up  (\) Slide Down  (h) Hammer On  (p) Pull Off  (b) Bend (r) Release (v) Vibrato


E|-----------------------------------------------------------------------------------------
B|-----------------------------------------------------------------------------------------
G|--10--13--13--10------10--12--10------10------------------10--12--13--10--12--13--10-----
D|------------------12--------------12------12--10------10---------------------------------
A|--------------------------------------------------12-------------------------------------
E|-----------------------------------------------------------------------------------------



E|-------------------------------------------------------------------------------------
B|-------------------------------------------------------------------------------------
G|--12--13--10--12--13--12--14--15--12--14--15--12--14--15--12--14--15--14--16--17-----
D|-------------------------------------------------------------------------------------
A|-------------------------------------------------------------------------------------
E|-------------------------------------------------------------------------------------



E|--------------------------------------------------------------------------------------
B|--------------------------------------------------------------------------------------
G|--14--16--17--14--16--17--14--16--17--15--17--19--15--17--19--15--17--19--15--17--19--
D|--------------------------------------------------------------------------------------
A|--------------------------------------------------------------------------------------
E|--------------------------------------------------------------------------------------



E|----------------------------------------------------------------------------------------------
B|----------------------------------------------------------------------------------------------
G|--17--19--21--17--19--21--17--19--21--17--19--21--20--21--18--20------18----------------------
D|------------------------------------------------------------------21------20--21--18--16--18--
A|----------------------------------------------------------------------------------------------
E|----------------------------------------------------------------------------------------------



E|------------------------------------------------------------------------------------
B|------------------------------------------------------------------------------------
G|------------------------------------------------------------------------------------
D|------------------------------------------------------------------------------------
A|--14--14--16--16--14--14--13--13--14--14--13--13--11--11--13--13--11--11--9--9--11--
E|------------------------------------------------------------------------------------



E|---------------------------------------------------------------------
B|---------------------------------------------------------------------
G|---------------------------------------------------------------------
D|---------------------------------------------------------------------
A|--11--11--13--13--14--14--16--16--11--11--13--13--14--14--18--18-----
E|---------------------------------------------------------------------



E|------------------------------------------------------------------
B|------------------------------------------------------------------
G|------------------------------------------------------------------
D|--11--11--13--13--14--14--16--16--11--11--13--13--14--14--18--18--
A|------------------------------------------------------------------
E|------------------------------------------------------------------



E|--17--20--17------17---------------------------------------------------------------------
B|--------------20------20--17--20--17------17---------------------------------------------
G|--------------------------------------19------19--17--19--17------17---------------------
D|--------------------------------------------------------------19------19--17--19--17-----
A|-----------------------------------------------------------------------------------------
E|-----------------------------------------------------------------------------------------



E|--------------------------------------------------------------
B|--------------------------------------------------------------
G|--------------------------------------------------19--17--14--
D|------17----------------------------------19--17--------------
A|--19------19--17--19--17----------19--17----------------------
E|--------------------------20--17------------------------------
http://www.guitartabcreator.com
Guitar Tab Creator is intended to store guitar tab created through the tool. It currently does not support in-line text editing. Any text you place in here will be lost. If you need to comment on your tab, please use the "Tab Notes" section located below.