idea


E|--------------------------------------------------------
B|--------------------------------------------------------
G|--10--------------9-------------7-----------5-----------
D|------12--10--12-----10--9--10-----9--7--9-----7--5--7-- x2
A|--------------------------------------------------------
E|--------------------------------------------------------



E|------------------------------------------------------------------
B|------------------------------------------------------------------
G|--10--------------12--------------14--------------15--------------
D|------12--10--12------14--12--14------15--14--15------17--15--17--
A|------------------------------------------------------------------
E|------------------------------------------------------------------



E|------------------------------------------------------------------
B|------------------------------------------------------------------
G|--15--------------14--------------12--------------10--------------
D|------17--15--17------15--14--15------14--12--14------12--10--12--
A|------------------------------------------------------------------
E|------------------------------------------------------------------
Guitar Tab Creator is intended to store guitar tab created through the tool. It currently does not support in-line text editing. Any text you place in here will be lost. If you need to comment on your tab, please use the "Tab Notes" section located below.