Cain (Chords)

(/) Slide Up  (\) Slide Down  (h) Hammer On  (p) Pull Off  (b) Bend (r) Release (v) Vibrato

E|--4--4--4--4--4--4--4--
B|--4--4--4--4--4--4--4--
G|--6--4--6--6--8--6--6--
D|--6--4--6--7--9--7--6--
A|--4--4--4--4--4--4--4--
E|--4--4--4--4--4--4--4--



E|--4--4--4--4--4--4--4--
B|--7--4--7--4--5--4--5--
G|--6--6--6--6--6--6--6--
D|--7--7--7--7--7--7--7--
A|--4--4--4--4--4--4--4--
E|--4--4--4--4--4--4--4--



E|--7--4--7--4--5--
B|--5--5--5-----5--
G|--4--4--4--4--4--
D|--6--6--6--6--6--
A|--4--4--4--4--4--
E|--4--4--4--4--4--



E|--7--9--11--12--14--16--
B|--4--4--4---4---4---4---
G|--4--4--4---4---4---4---
D|--4--4--4---4---4---4---
A|--4--4--4---4---4---4---
E|--7--9--11--12--14--16--
http://www.guitartabcreator.com
Guitar Tab Creator is intended to store guitar tab created through the tool. It currently does not support in-line text editing. Any text you place in here will be lost. If you need to comment on your tab, please use the "Tab Notes" section located below.