singer songwriter

(/) Slide Up  (\) Slide Down  (h) Hammer On  (p) Pull Off  (b) Bend (r) Release (v) Vibrato

E|-----------------------------------------------------------------------------------------
B|-----------------------------------------------------------------------------------------
G|-----------------------------------------------------------------------------------------
D|-----------------------------------------------------------------------------------------
A|-----------------------------------------------------------------------------------------
E|--7--7--7--7--7--5--7--5--7--7--7--7--7--7--5--7--5--5--5--5--5--3--5--3--5--5--5--5--5--



E|--------------------------------------------
B|--------------------------------------------
G|--------------------------------------------
D|--------------------------------------------
A|--5--5--5--7--7--7--9--9--9--9--7--7--7--7--
E|--------------------------------------------



E|-----------------------------------------------------------
B|-----------------------------------------------------------
G|-----------------------------------------------------------
D|-----------------------------------------------------------
A|-----------------------------9--9--9--7--7--7--11--11--11--
E|--7--7--7--5--5--5--7--5--7--------------------------------



E|--------------------------------------------------------------------
B|--------------------------------------------------------------------
G|--------------------------------------------------------------------
D|--------------------------------------------------------------------
A|--------------------0--0--0--0--0--0-----------------0--0--0--0--0--
E|--2--2--2--2--2--2--------------------2--2--2--2--2-----------------



E|--------------------------------------------------------------------
B|--------------------------------------------------------------------
G|--------------------------------------------------------------------
D|--------------------------------------------------------------------
A|--------------------------------------------------------------------
E|--5--5--5--14--14--14--12--14--12--5--5--5--14--14--14--12--14--12--
http://www.guitartabcreator.com
Guitar Tab Creator is intended to store guitar tab created through the tool. It currently does not support in-line text editing. Any text you place in here will be lost. If you need to comment on your tab, please use the "Tab Notes" section located below.