Mumblr

(/) Slide Up  (\) Slide Down  (h) Hammer On  (p) Pull Off  (b) Bend (r) Release (v) Vibrato


E|--------------------------------------------------------------------
B|--------------------------------------------------------------------
G|--------------------------------------------------------------------
D|--------------------------------------------------------------------
A|-----------------4--4--4--3--4--1--1--1--1--1--2--2--2--2--2--1--2--
E|--1--1--1--1--1-----------------------------------------------------



E|-----------------------------------------------------------------------------------------------------
B|-----------------------------------------------------------------------------------------------------
G|-----------------------------------------------------------------------------------------------------
D|-----------------------------------------------------------------------------------------------------
A|-----------------------------------------------------------------------------------------------------
E|--8--8--8--8--4--4--4--4--8--8--8--8--4--4--4--4--8--8--8--8--4--4--4--4--1--1--1--1--2--2--2--2--3--



E|----------------------------
B|----------------------------
G|----------------------------
D|----------------------------
A|--8--8----------------------
E|--------7--7--6--6--5--5--5\
http://www.guitartabcreator.com
Guitar Tab Creator is intended to store guitar tab created through the tool. It currently does not support in-line text editing. Any text you place in here will be lost. If you need to comment on your tab, please use the "Tab Notes" section located below.